Accordi - Perdóname - Deorro

13:46:00 0 Comments A+ a-

Video


Testo di Deorro Feat. Adrian Delgado & DyCy

Son las 3 de la mañana,
Y estoy en tu ventana,
Buscándote amor,
Escucha por favor

Y tu qué estas pensando
Llegando aquí tomando
Vete ya de aquí
Déjame dormir

Pero yo no puedo irme sin un beso

Oooh [x2]

Pero ya es muy tarde y no te quiero ver

Oooh [x2]

Hago lo que quieras, perdóname mi nena

Oooh

Yo no te lo creo, ¿Qué no tienes pena?

Estoy cantando

Oooh [x2]

Perdóname

Oooh [x2]

Te estoy diciendo

Que mas puedo esperar de tí
Uh
Tu no sabes todo lo que yo sufrí
No, no, no

Sal un ratito,
Deja te explico
(Lo que paso)

Soy un maldito
Te necesito
(Perdóname)

Hago lo que quieras, perdóname mi nena
Oooh

Yo no te lo creo, ¿Qué no tienes pena?

Estoy cantando

Oooh [x2]

Perdóname

Oooh [x2]

Te estoy diciendo

Oooh [x2]

Estoy cantando [x3]

Uno, dos, tres

Oooh [x2]

Perdóname

Oooh [x2]

Perdóname

Hago lo que quieras, perdóname mi nena

Oooh

Yo no te lo creo, ¿Qué no tienes pena?

Estoy cantando

Oooh [x2]

Perdóname

Oooh [x2]

Perdóname


Video Accordi di Perdoname

Tab

Tuning: Standard

   
e|10--8--5--11/10--8--5--3-5--10--8--5--11/10--8--5--------------------------|
B|---------------------------------------------------------------------------|
G|---------------------------------------------------------------------------|
D|---------------------------------------------------------------------------|
A|---------------------------------------------------------------------------|
E|---------------------------------------------------------------------------|


e|---------------------------------------------------------------------------|
B|15--13--10--16/15--13--10--8-10--13--10--16/15--13--10---------------------|
G|---------------------------------------------------------------------------|
D|---------------------------------------------------------------------------|
A|---------------------------------------------------------------------------|
E|---------------------------------------------------------------------------|

 

e|--------------------------------------------------------------------------------------|
B|--------------------------------------------------------------------------------------|
G|--------------------------------------------------------------------------------------|
D|--------------------------------------------------------------------------------------|
A|--------------------------------------------------------------------------------------|
E|1\13-13-13-13-13-13-13-13-12--12-12-12-12-12-12-12/5--5-5-5-5-5-5-7--7-7-8--8-8-------|



e|---------------------------------------------------------------------------|
B|---------------------------------------------------------------------------|
G|---------------------------------------------------------------------------|
D|---------------------------------------------------------------------------|
A|1\8-8-8-8-8-8-8-8-7--7-7-7-7-7-7-7-0--0-0-0-0-0-0-2--2-2-3--3-3------------|
E|---------------------------------------------------------------------------|