Testo + accordi Home Again - Michael Kiwanuka

10:03:00 0 Comments A+ a-

Video



Testo e accordi di Michael Kiwanuka

ACCORDI USATI
VERSO 1
G*      xx543x
D*      x54x3x
B7      x212xx
Em      0x2x0x
FILL 1
Dsus4    xx02x0
D       xx02x2
VERSO 2
Bm      x24x3x
Am      x02x1x
Asus4   x02x0x
G       3x0x0x
FILL 2
D/F#    xx4x3x
Em/G    xx5x5x
F#m/A   xx7x7x
BRIDGE
Cm      x35x4x
G(fret) 3x5x3x
D       xx0232 (one strum)
G       3xx003 (one strum)


    G*(4x)  D*(4x)  G*(4x)  D*(4x)  B7(4x)  Em(4x)
E||------------------------------------------------|
B||------3------3-------3-------3---------------0--|
G||----4--------------4-----------------2----------|
D||--5--------4-----5---------4-------1-------2----|
A||---------5---------------5-------2--------------|
E||-----------------------------------------0------|




E||-------------------|
B||--/3-5-7---/3-5-3--|
G||-------------------|
D||--/4-5-7---/4-5-4--|
A||-------------------|
E||-------------------|




E||-----------------------------------------|
B||--1--/1-3\-1p0---1--------1/-3\-1p0---1--|
G||--------------------------2/-4\-2-----2--|
D||--2--/2-4\-2-----2----0------------------|
A||---------------0----0---------------0----|
E||-----------------------------------------|




(INTRO) G*
G*         D*          G*        D*
Home again   Home again
B7                     Em
One day I know    I'll feel home again
G*         D*          G*        D*
Born again   Born again
B7                     Em
One day I know    I'll feel strong again
Am                     Dsus2  D  Dsus2
    and lift my head (?)


Bm                 Am   Asus4  Am  Asus4
  Many times I've been told
Bm                     Am
  All this talk will make you old
     D/F#   Em/G  F#m/A   D/F#
Em/G  D/F#
So I close  my    eyes    Look  be----hind
G                 Am
Moving on, moving on
     D/F#   Em/G  F#m/A   D/F#
Em/G  D/F#
So I close  my    eyes    Look  be----hind
G*
I'm moving on

G*
G*         D*          G*        D*
Lost again   Lost again
B7                     Em
One day I know     our paths will cross again
G*         D*          G*        D*
Smile again  Smile again
B7                     Em
One day I hope      to make you smile again
Am                     Dsus2  D  Dsus2 D
and I won't hide


Bm                 Am   Asus4  Am  Asus4
  Many times I've been told
Bm                     Am
  Speak your mind just be bold
     D/F#   Em/G  F#m/A   D/F#
Em/G  D/F#
So I close  my    eyes    Look  be----hind
G                 Am
Moving on, moving on
     D/F#   Em/G  F#m/A
So I close  my    eyes...

Cm                 G(fret)
And the tears will clear
Cm                 G(fret)
    That I feel no fear
         D    G  D
Then I'd feel no way
         D    G  D             Fill#2  C/E
D/F# C/E E5 C/E    Am  Bm Am Am/E
my paths will be laid straight


G*         D*          G*        D*
Home again   Home again
B7                     Em
One day I know    I'll feel home again
G*         D*          G*        D*
Born again   Born again
B7                     Em
One day I know    I'll feel strong again
Am                     Dsus2  D  Dsus2
  and I'll lift my head (?)


Bm                 Am   Asus4  Am  Asus4
  Many times I've been told
Bm                     Am
  All this talk will make you old
     D/F#   Em/G  F#m/A   D/F#
Em/G  D/F#
So I close  my    eyes    Look  be----hind
G                 Am
I'm moving on, moving on
     D/F#   Em/G  F#m/A   D/F#
Em/G  D/F#
So I close  my    eyes    Look  be----hind
G*
Moving on