mercoledì 14 gennaio 2009

Guano Apes- Open your eyes - Testo, traduzione, accordi e video

Hide your face forever
dream and search forever

Have you ever been for sale ?
when your isms get smart
oh so selfish and mindless
with that comment in your eye

Do you think that you are hard ?
really harder than the other
man you’re acting cold
if you are not in charge

Don’t split your mentality
without thinking twice
your voice has got no reason
now is the time to face your lies

Open your eyes, open your mind
proud like a god don’t pretend to be blind
trapped in yourself, break out instead
beat the machine that works in your head

Will you offer me some tricks
if I ever need them
would you go into that room
if I call ‘em

Do you think that you are better
really better than the rest
realize there’s a problem
I know that you can give your best

Have you ever had a dream?
or is life just a trip?
a trip without chances
a chance to grow up quick

Open your eyes, open your mind …

Hide your face forever
dream and search forever
night and night you feel nothing
there’s no way outside of my land

Open your eyes, open your mind …


Scarica qui la suoneria



Traduzione

Apri Gli Occhi

nascondi la tua faccia per sempre
sogna e cerca per sempre

sei mai stato messo in vendita?
quando I tuoi ismi diventano intelligenti
oh così egoista e insensato
con quel commento nei tuoi occhi
pensi di essere forte?
molto più forte degli altri?
amico tu fai il duro
se non sei chi comanda
non dividere la tua mentalità
senza pensarci due volte
la tua voce non ha ragione
adesso è ora di affrontare le tue bugie

apri I tuoi occhi, apri la tua mente

orgoglioso come un dio non fare finta di essere cieco
intrappolato in te stesso, cerca di uscire
batti la macchina che lavora nella tua testa

mi offrirai qualche trucco
se ne avessi bisogno?
entreresti in quella stanza
se li chiamassi
pensi di essere meglio
molto meglio degli altri?
realizza che c’è un problema
io so che tu puoi dare il tuo meglio
hai mai avuto un sogno?
o la vita è solo un viaggio ?
un viaggio senza possibilità
possibilità di crescere rapidamente

apri I tuoi occhi, apri la tua mente
orgoglioso come un dio non fare finta di essere cieco
intrappolato in te stesso, cerca di uscire
batti la macchina che lavora nella tua testa

nascondi la tua faccia per sempre
sogna e cerca per sempre
notte dopo notte non senti niente
non c’è scampo fuori dalla mia terra

apri I tuoi occhi, apri la tua mente
orgoglioso come un dio non fare finta di essere cieco
intrappolato in te stesso, cerca di uscire
batti la macchina che lavora nella tua testa

Video




Intro:

Guitar I (4x)
|---------------------------------------|
|---------------------------------------|
|-----4--4--5--5-----5-----7--7--9--9---|
|--2--4--4--5--5-----5-----7--7--9--9---|
|--2--2--2--3--3-----3-----5--5--7--7---|
|--0------------------------------------|

Guitar II (with a lot of wahwah)
|---------------------------------------|
|---7------8------7------8------7-8-----|
|---------------------------------------|
|---------------------------------------|
|---------------------------------------|
|---------------------------------------|

|---------------------------------------|
|---7------8------7------8------7-------|
|---------------------------------7-----|
|---------------------------------------|
|---------------------------------------|
|---------------------------------------|

|---------------------------------------|
|-----3--3--5--5-----5-----7--7--8--8---|
|--2------------------------------------|
|---------------------------------------|
|---------------------------------------|
|---------------------------------------|

|---------------------------------------|
|-----3--3--5--5-----5-----7--7--8--8---|
|--2------------------------------------|
|---------------------------------------|
|---------------------------------------|
|---------------------------------------|



Verse:

Guitar I(all palm muted. play only every second bar
and open your wahwah pedal slowly while doing it)
|-x-x-x-x-x-x-|
|-x-x-x-x-x-x-|
|-x-x-x-x-x-x-|
|-2-2-2-2-2-2-|
|-2-2-2-2-2-2-|
|-x-x-x-x-x-x-|

Guitar II(play only twice during the verse and open
and close your pedal fastly. listen closly to find
out)
|----------------|
|----------------|
|----------------|
|-2~~~-----------|
|-2~~~-----------|
|-0~~~-----------|



End bit:

|-----------|
|-----------|
|--9--------|
|--9--5--2--|
|--7--5--2--|
|-----3--0--|

Chorus(same as Intro):

only one Guitar now (4x)
|---------------------------------------|
|---------------------------------------|
|-----4--4--5--5-----5-----7--7--9--9---|
|--2--4--4--5--5-----5-----7--7--9--9---|
|--2--2--2--3--3-----3-----5--5--7--7---|
|--0------------------------------------|



play verse 2 (just like verse 1 with the end bit)

play chorus


Solo thingy:

Guitar I
|--------------------------------------|
|--------------------------------------|
|--------------------------------------| 3x
|--2--2-----2--2-----2--2-----2--2-----|
|--2--2-----2--2-----2--2-----2--2-----|
|--0--0-----0--0-----0--0-----0--2-----|

|--------------------------------------|
|--------------------------------------|
|-----------------------------9--------| 1x
|--2--2-----2--2-----2--2-----9--5--2--|
|--2--2-----2--2-----2--2-----7--5--2--|
|--0--0-----0--0-----0--0--------3--0--|


Guitar II
(use your wahwah pedal for this.
listen to find out how, it's quite easy)
|---------------------------|
|---7----8----7----8----7---|
|-------------------------7-|
|---------------------------|
|---------------------------|
|---------------------------|


play chorus 2x


End:

|--------------------------|
|--------------------------|
|--------------------------|
|--2--2-----2--2-----2--2--|
|--2--2-----2--2-----2--2--|
|--0--0-----0--0-----0--0--|

Nessun commento: