Accordi - Black Hole Sun - Soundgarden

13:05:00 0 Comments A+ a-

Video

Testo e accordi per chitarra dei Soundgarder


Accordi
MIm        SOLm        FAm        MIb         RE
e|--0--| e|--3--| e|--1--| e|--6--| e|--5--|
B|--0--| B|--3--| B|--1--| B|--7--| B|--7--|
G|--0--| G|--3--| G|--1--| G|--7--| G|--7--|
D|--2--| D|--5--| D|--3--| D|--7--| D|--7--|
A|--2--| A|--5--| A|--3--| A|--6--| A|--5--|
E|--0--| E|--3--| E|--1--| E|--6--| E|--5--|

SOL                SOL         SOL7         SIb         DOm
e|--0--| e|--3--| e|--3--| e|--1--| e|--3--|
B|--0--| B|--3--| B|--3--| B|--3--| B|--4--|
G|--2--| G|--4--| G|--4--| G|--3--| G|--5--|
D|--0--| D|--5--| D|--3--| D|--3--| D|--5--|
A|--0--| A|--5--| A|--5--| A|--1--| A|--3--|
E|--3--| E|--3--| E|--3--| E|--1--| E|--3--|

INTRODUZIONE

e----------------|-----------|-----------------|------------|
B-------3--------|-------3---|-------3---------|-------2----|
G-----2----2-----|-----2-----|-----0----0------|------------|
D---2--------2---|---2-------|---0--------0----|-----4------|
A-0------------0-|-3---------|-----------------|---4--------|
E----------------|-----------|-3-------------0-|-2--------0-|

e----------------|-----------|
B----------------|-----------|
G-------3--------|--------4--|
D-----3----3-----|------2----|
A---3--------3---|----5------|
E-1------------1-|--0--------|

Verso:
MIm        SOLm
In my eyes, indisposed
FAm              MIm
in disguise as no one knows
MIb             RE
hides the face, lies the snake
SOL            FAm
the sun in my disgrace
MIm             SOLm
Boiling heat, summer stench
FAm                  MIm
beneath the black the sky looks dead
MIb               RE
call my name through the cream
SOL                 FAm
and i´ll hear you, scream again

Coro
MIb             RE
Black hole sun, w'ont you come
SOL     SOL7      SIb
and wash away the rain
MIb             RE
Black hole sun, w'ont you come
DOm
w'ont you come
RE
w'ont you come

Verso:

MIm               SOLm
Stuttering, cold and damp
FAm              MIm
steal the warm wind tired friend
MIb              RE
times are gone for honest men
SOL                       FAm
and sometimes far too long to snakes
MIm              SOLm
In my shoes a walking sleep
FAm              MIm
and my youth i pray to keep
MIb        RE
heaven send hell away
SOL               FAm
no one sings like you anymore

Coro
MIb             RE
Black hole sun, w’ont you come
SOL     SOL7      SIb
and wash away the rain
MIb             RE
Black hole sun ,w’ont you come
DOm             SIb
W’ont you come

MIb             RE
Black hole sun, w’ont you come
SOL     SOL7      SIb
And wash away the rain
MIb             RE
Black hole sun, w’ont you come

DOm                SIb              REm
w'ont you come ( black hole sun, black hole sun) X4
DURING SOLO PLAY THIS RIFF 1:
RE5  DO#5  SI5   RE5   LAm  SOLm
e|--5----4----2---5----5---3---3----3---3---3----|
B|--5----4----2---5----5---3---3----3---3---3----|
G|--7----6----4---7----5---3---3----3---3---3----| X5
D|--7----6----4---7----7---5---5----5---5---5----|
A|--5----4----2---5----7---5---5----5---5---5----|
E|--5----4----2---5----5---3---3----3---3---3----|

On the 6st time play :

RE5    DO#5   SI5    RE5    LAm    SOLm                    LAm
e|---5-----4-----2-----5-----5-----3---------3-----3--/--5-------|
B|---5-----4-----2-----5-----5-----3---------3-----3--/--5-------|
G|---7-----6-----4-----7-----5-----3---------3-----3--/--5-------|
D|---7-----6-----4-----7-----7-----5---------5-----5--/--7-------|
A|---5-----4-----2-----5-----7-----5---------5-----5--/--7-------|
E|---5-----4-----2-----5-----5-----3---------3-----3--/--5-------|

MIm             SOLm
Hang my head, drown my fear
FAm           MIm
Till you all just disappear