Accordi - Something Just Like This - The Chainsmokers & Coldplay

13:37:00 0 Comments A+ a-

Video


Testo e qccordi per chitarra di  - Something Just Like This - The Chainsmokers & Coldplay

[Introduzione]
G  A  Bm  A
G  A  Bm


[Verso 1]
             A             G          A             Bm
I've been reading books of old, the legends and the myths
     A           G          A           Bm
Achilles and his gold, Hercules and his gifts
   A           G           A            Bm  
Spiderman's control and Batman with his fists
A           G                  A         Bm      
And clearly I don't see myself upon that list


[Pre-Coro 1]
                A           G            A         Bm
She said, where'd you wanna go, how much you wanna risk?
           A            G                A        Bm
I'm not looking for somebody with some superhuman gifts
       A      G         A      Bm
Some superhero, some fairytale bliss
         A           G              A        Bm
Just something I can turn to, somebody I can kiss


[Coro 1]
           A              G                   A           Bm
I want something just like this, doo-doo-doo, doo-doo-doo
             A       G             A           Bm
Doo-doo-doo, doo-doo, doo-doo-doo, doo-doo-doo
              A              G                   A           Bm
Oh I want something just like this, doo-doo-doo, doo-doo-doo    
             A       G             A           Bm
Doo-doo-doo, doo-doo, doo-doo-doo, doo-doo-doo
              A              G     A  Bm   A  G  A  Bm
Oh I want something just like this
           A              G     A  Bm   A  G  A  Bm
I want something just like this


[Verso 2]
             A             G          A             Bm
I've been reading books of old, the legends and the myths
       A            G              A        Bm
The testaments they told, the moon and its eclipse
      A        G             A         Bm  
And Superman unrolls, a suit before he lifts
A         G                  A           Bm
  But I'm not the kind of person that it fits


[Pre-Coro 2]
                A           G            A         Bm
She said, where'd you wanna go, how much you wanna risk?
           A            G                A        Bm
I'm not looking for somebody with some superhuman gifts
       A      G         A      Bm
Some superhero, some fairytale bliss
         A           G              A        Bm
Just something I can turn to, somebody I can miss


[Coro 2]
           A              G     A  Bm   A  G  A  Bm
I want something just like this
           A              G     A  Bm   A  G  A  Bm
I want something just like this
              A              G              A                Bm
Oh I want something just like this, doo-doo-doo, doo-doo-doo    
        A            G        A                   Bm
Doo-doo-doo, doo-doo, doo-doo-doo, doo-doo-doo-oo
              A              G              A                Bm
Oh I want something just like this, doo-doo-doo, doo-doo-doo    
        A            G        A                   Bm
Doo-doo-doo, doo-doo, doo-doo-doo, doo-doo-doo-oo


[Pre-Coro 3]
      A           G            A         Bm
Where'd you wanna go, how much you wanna risk?
           A            G                A        Bm
I'm not looking for somebody with some superhuman gifts
       A      G         A      Bm
Some superhero, some fairytale bliss
         A           G              A        Bm
Just something I can turn to, somebody I can kiss
           A             (G)    
I want something just like this


[Interlude]

e|-----------0----2-------|---0---2---3-------|---2-------0----2----0---|
B|---0-------2----3-------|---3---3---3-------|---3-------2----3----2---|
G|---0-------2----2-------|---2---2---0-------|---2-------2----2----2---|
D|---0-------2----0-------|---0---0---0-------|---0-------2----0----2---| x2
A|---x-------0------------|-----------x-------|-----------0---------0---|
E|---3--------------------|-----------3-------|-------------------------|


[Outro]
                             G     A  Bm   A
Oh I want something just like this
G  A  Bm  A
G  A  Bm  A
G  A  Bm
              A              G     A  Bm   A
Oh I want something just like this
G  A  Bm  A
G  A  Bm  A
G  A  Bm
              A              G     A  Bm   A
Oh I want something just like this
G  A  Bm  A


Assolo finale
e|-----------------------|----------------|-----------14---------------------------|
B|--12------12--14--14---|---14--15--15---|---14--15------15--14--15---------------|
G|-----------------------|----------------|----------------------------------------|
D|-----------------------|----------------|----------------------------------------| x4
A|-----------------------|----------------|----------------------------------------|
E|-----------------------|----------------|----------------------------------------|


e|----------------------------------------|----------------------------------------|
B|--12----12--12--12-12p10------12p10-----|--12----12--12--12-12p10------14b15r14--|
G|-------------------------11---------11--|-------------------------11-------------|
D|----------------------------------------|----------------------------------------| x3
A|----------------------------------------|----------------------------------------|
E|----------------------------------------|----------------------------------------|


e|-----------------------|----------------|-----------14---------------------------|
B|--12------12--14--14---|---14--15--15---|---14--15------15--14--15---------------|
G|-----------------------|----------------|----------------------------------------|
D|-----------------------|----------------|----------------------------------------|
A|-----------------------|----------------|----------------------------------------|
E|-----------------------|----------------|----------------------------------------|