Accordi - GET STUPID - ASTON MERRYGOLD

11:07:00 0 Comments A+ a-

Video


Testo e accordi per chitarra di ASTON MERRYGOLD

Verse 1:
                 G
Don't bring that bad day with ya, Leave it at the door.
It's a cold blooded killer, Take it out for sure.
       C                 Bb                        G
Make a new kinda nine to five, that's what we gon' do.

     S   Q   S   Q   S   Q   S   Q   C
e||------------------------------------||
B||------------------------------------||
G||------------------------------------||
D||------------------------------------||
A||--1-h-3---1-h-3---1-h-3---1-h-3---1-||
E||------------------------------------||

G
Let's not complicate it, Trouble baking What's the point if you can’t celebrate
        C               Bb               G
Let the good times multiply, Just me and you, yeah.

     S   Q   S   Q   S   Q   S   Q   C       C   C   C   C
e||------------------------------------|X3|-----------------||
B||------------------------------------|--|-----------------||
G||------------------------------------|--|-----------------||
D||------------------------------------|--|-----------------||
A||--1-h-3---1-h-3---1-h-3---1-h-3---1-|--|--5---5---5--(R)-||
E||------------------------------------|--|-----------------||
Gonna tell ya now, Let me tell ya now,                   Wow!
Let me tell ya now.

Chorus:
G
Here's an invitation to the whole wide world,
From your brother to your sister to your best friend's girl,
        C             Bb                   G
Can't excuse it, No excuses, Everybody get stupid.

     C   Q  S Q  S Q  C      S Q  S Q  S Q  S Q  S S Q
e||-----------------------||----------------------------||
B||-(R)--6--6-5--5--------||----------------------------||
G||----------------7--5---||-3-5--3-5--3-5--3-5--3------||
D||-----------------------||-----------------------5-5--||
A||-----------------------||----------------------------||
E||-----------------------||----------------------------||

G
Unpredictable and erratic, Never stuck and steady, Once you get it then you won't let go.
              C                   Bb                     G
Don't call it foolish, I say it's coolish, Everybody get stupid.

Verse 2:
G
MJ thriller, Outta control, Keep 'em guessing like Riddler, Edward Nigma.
         C                Bb                   G
But it's not that hard to find, It's all about you.
G
Let's not complicate it, Trouble baking
What's the point if you can’t celebrate
        C               Bb               G
Let the good times multiply, Just me and you, yeah.

     S   Q   S   Q   S   Q   S   Q   C       C   C   C   C
e||------------------------------------|X3|-----------------||
B||------------------------------------|--|-----------------||
G||------------------------------------|--|-----------------||
D||------------------------------------|--|-----------------||
A||--1-h-3---1-h-3---1-h-3---1-h-3---1-|--|--5---5---5--(R)-||
E||------------------------------------|--|-----------------||
Gonna tell ya now, Let me tell ya now,                   Wow!
Let me tell ya now.

Chorus:
G
Here's an invitation to the whole wide world,
From your brother to your sister to your best friend's girl,
        C             Bb                   G
Can't excuse it, No excuses, Everybody get stupid.

     C   Q  S Q  S Q  C      S Q  S Q  S Q  S Q  S S Q
e||-----------------------||----------------------------||
B||-(R)--6--6-5--5--------||----------------------------||
G||----------------7--5---||-3-5--3-5--3-5--3-5--3------||
D||-----------------------||-----------------------5-5--||
A||-----------------------||----------------------------||
E||-----------------------||----------------------------||

G
Unpredictable and erratic, Never stuck and steady, Once you get it then you won't let go.
              C                   Bb                     G
Don't call it foolish, I say it's coolish, Everybody get stupid.

Bridge:
G
If you got money in your pocket, It don't mean nothing,
If you ain't where it is, If you ain't where it is.
If you ain't got a mister, I'll dance with ya
Til it's late let 'em in, Til it's late let 'em in.

    Q   S  Q   S  Q   S  Q   S  C      C  C  C  C   Q Q Q Q Q Q  C
e||-------------------------------|X3|------------|------------------||
B||-------------------------------|--|------------|------------------||
G||-------------------------------|--|------------|------------------||
D||-------------------------------|--|------------|------------------||
A||-1-h-3--1-h-3--1-h-3--1-h-3--1-|--|-5--5--5--5-|-5-5-5-5-5-5-(R)--||
E||-------------------------------|--|------------|------------------||

Chorus:
G
Here's an invitation to the whole wide world,
From your brother to your sister to your best friend's girl,
        C             Bb                   G
Can't excuse it, No excuses, Everybody get stupid.

     C   Q  S Q  S Q  C      S Q  S Q  S Q  S Q  S S Q
e||-----------------------||----------------------------||
B||-(R)--6--6-5--5--------||----------------------------||
G||----------------7--5---||-3-5--3-5--3-5--3-5--3------||
D||-----------------------||-----------------------5-5--||
A||-----------------------||----------------------------||
E||-----------------------||----------------------------||

G
Unpredictable and erratic, Never stuck and steady, Once you get it then you won't let go.
              C                   Bb                     G
Don't call it foolish, I say it's coolish, Everybody get stupid.

~~~~~~~~~~~~~~~~~~~~~~~~~~~~~~~~~~~~~~~~~~~~~~~~~~~~~~~~~~~~~~~~~~~~~~~~~~~~~~~~~~~~~~~~~~~~~~~~~~~~~~~~~~~~~

Bass Riff to try over song:
    C  Q  Q.  S  Q  Q       C   Q  Q.  S  Q  Q    C   Q  Q.  S  Q  Q   C  Q  Q.  S  Q  Q    C  Q  Q.  S  Q  Q
e||--------------------|x4|--------------------|---------------------|--------------------|-------------------|
B||--------------------|--|--------------------|---------------------|--------------------|-------------------|
G||--------------------|--|--------------------|---------------------|--------------------|-------------------|
D||--------------------|--|--------------------|---------------------|--------------------|-------------------|
A||--------------------|--|-3---x--3---3--3--2-|--1---x--1---1--1----|--------------------|-------------------|
E||-3---x--3---3--1--2-|--|--------------------|-------------------2-|-3---x--3---3--1--2-|-3---x--3---3--1--2|