Accordi - Can't Feel My Face - The Weeknd

09:57:00 0 Comments A+ a-

Video

Testo e accordi per chitarra dei The Weeknd

Introduzione : G F Am


Verso:
        G                                  F
And I know she'll be the death of me, at least we'll both be numb.
             Am
And she'll always get the best of me, the worst is yet to come.
         G                                 F
But at least we'll both be beautiful and stay forever young.
        Am
This I know, yeah, this I know.


PRE Coro:
                   G       F
She told me "Don't worry about it”.
                    Am
She told me "Don't worry no more”.
                  G         F
We both knew we can't go without it.
                   Am                
She told me you'll never be in love oh oh oooh.


Coro:

e|------------------|-------------------|-------------------|--------------------|
B|-----------------|-------------------|-------------------|--------------------|
G|-----------------|-------------------|-------------------|--------------------|
D|--5--5--5-------|--3--3--3--------|---7--7--7--5----|--7--7--7---------| X 4
A|--5--5--5------3|--3--3--3------3|--7--7--7--5-----|--7--7--7---------|
E|--3--3--3--3-5--|--1--1--1--1-3--|--5--5--5--3-----|--5--5--5--5-7-8|
    G  G  G          F  F  F          Am Am Am(G)      Am Am Am

   

G                                    F        Am       (G)  Am
I can't feel my face when I'm with you, but I love it, but I love it.
G                                    F        Am       (G)  Am
I can't feel my face when I'm with you, but I love it, but I love it.


Verso:
       G                                  F
And I know she'll be the death of me, at least we'll both be numb.
            Am
And she'll always get the best of me, the worst is yet to come.
         G                     F
All the misery was necessary when we're deep in love.
       Am
This I know, girl, this I know.

PRE Coro:
                   G       F
She told me "Don't worry about it”.
               Am
She told me "Don't worry no more”.
                G            F
We both knew we can't go without it.
                   Am                
She told me you'll never be in love oh oh oooh.

Coro:


e|------------------|-------------------|-------------------|--------------------|
B|-----------------|-------------------|-------------------|--------------------|
G|-----------------|-------------------|-------------------|--------------------|
D|--5--5--5-------|--3--3--3--------|---7--7--7--5----|--7--7--7---------| X 4
A|--5--5--5------3|--3--3--3------3|--7--7--7--5-----|--7--7--7---------|
E|--3--3--3--3-5--|--1--1--1--1-3--|--5--5--5--3-----|--5--5--5--5-7-8|
    G  G  G          F  F  F          Am Am Am(G)      Am Am Am


G                                    F        Am       (G)  Am
I can't feel my face when I'm with you, but I love it, but I love it.
G                                    F        Am       (G)  Am
I can't feel my face when I'm with you, but I love it, but I love it.
G                                    F        Am       (G)  Am
I can't feel my face when I'm with you, but I love it, but I love it.
G                                    F        Am       (G)  Am
I can't feel my face when I'm with you, but I love it, but I love it.

INTERLUDE:
G F Am

PRE Coro:
                   G       F
She told me "Don't worry about it”.
               Am
She told me "Don't worry no more”.
                G            F
We both knew we can't go without it.
                   Am                
She told me you'll never be in love oh oh oooh.

Coro:


e|------------------|-------------------|-------------------|--------------------|
B|-----------------|-------------------|-------------------|--------------------|
G|-----------------|-------------------|-------------------|--------------------|
D|--5--5--5-------|--3--3--3--------|---7--7--7--5----|--7--7--7---------| X 4
A|--5--5--5------3|--3--3--3------3|--7--7--7--5-----|--7--7--7---------|
E|--3--3--3--3-5--|--1--1--1--1-3--|--5--5--5--3-----|--5--5--5--5-7-8|
    G  G  G          F  F  F          Am Am Am(G)      Am Am Am

G                                    F        Am       (G)  Am
I can't feel my face when I'm with you, but I love it, but I love it.
G                                    F        Am       (G)  Am
I can't feel my face when I'm with you, but I love it, but I love it.
G                                    F        Am       (G)  Am
I can't feel my face when I'm with you, but I love it, but I love it.
G                                    F        Am       (G)  Am
I can't feel my face when I'm with you, but I love it, but I love it.


I can’t feel my fa...