Traduzione + Accordi - Opportunity - Sia

18:44:00 0 Comments A+ a-

Video di Sia




Testo e accordi per chitarra di Pete Murray
Primo Capotasto.

VERSE 1
-------
G     Em                  G  
So it goes another lonely day,
            Em                         C  
your saving time but you might as well wait,
            Am                      C  
Your flowers drowning in some bitter tea,
            Am          G
Your seeing lost opportunity.
G         Em               G  
Find your mirror dont look inside,
        Em                   C
see the talent you'll always hide,
         Am                      C
don't go kidd yourself for not today,
      Am                 G  
satisfactions not to far away.


Chorus
------
G     D           Am        
Hold on now your exits here,
     C                G
it's waiting just for you,
      D                  Am    
don't pause too long its fading now,
    C              G     D
its ending all too sooooon,
       Am         G     D      Am
you'll see. (x2 'sooooon you'll see')


VERSE 2
--------
G     Em                  G
Your Coffee's warm but your milk is sour,
  Em                         C  
life is short but you had a flower,
      Am                      C  
dream yourself along another day,
       Am          G
never miss opportunity.
G         Em               G
Don't be scared of what you cannot see,
      Em                   C
Your only fear is possibility,
         Am                      C
never wondered what the hell went wrong,
         Am                 G  
your second chance may never come along.

Chorus
------

Piano solo, pode ser tocado no violão:

Lembre do capo na primeira casa.
e|-------|------------------|------------------|-----------------------|
B|--0----|------------------|--0--------0------|----------3--------0---|
G|-----2-|--0-------0-----2-|----------------2-|---0-------------------|
D|-------|------------------|------------------|-----------------------|
A|-------|------------------|------------------|-----------------------|
E|-------|------------------|------------------|-----------------------|

e|---------------|-----------------|0----0-----------------------------|
B|-1-------1-----|--1------1---3---|1----1---3---1---1---3-0-----------|
G|-------------4-|--2------2---4---|---------4---2---2---4-0-----------|
D|---------------|-----------------|-----------------------------------|
A|---------------|-----------------|-----------------------------------|
E|---------------|-----------------|-----------------------------------|


Chorus 2
--------
     D           Am        
Hold on now your exits here,
     C                G
it's waiting just for you,
      D                  Am    
don't pause too long its fading now,
    C              G     D
its ending all too sooooon,
       Am         G     D      Am
you'll see. (x6 'sooooon you'll see')


Traduzione
E così va un altro giorno solitario
Il vostro tempo sabina ma le miglia di distanza
Il tuo volo è stato drownin in un tè amaro
Per vedere un'occasione persa

Trova il tuo specchio andare a guardare dentro
E vedere il talento è sempre nascondere
Non andare Kidd se stessi bene non oggi
Soddisfazione non da lontano

Aspetta ora le uscite qui
E 'in attesa solo per voi
Non mettere in pausa troppo lunga
Sta svanendo ora
Sta finendo tutto troppo presto vedrete

Presto vedrete

Il caffè del caldo, ma il latte è acido
La vita è breve ma la vostra qui a fiore
Sognare se stessi lungo un altro giorno
Non perdere mai un'occasione

Non aver paura di ciò che non si può vedere
La tua unica paura è possibilità
Non chiedo che cosa diavolo è andato storto
La tua seconda opportunità non può mai venire avanti

Aspetta ora le uscite qui
E 'in attesa solo per voi
Non mettere in pausa troppo lunga
Sta svanendo ora
Sta finendo tutto troppo presto vedrete

Presto vedrete

Aspetta ora le uscite qui
E 'in attesa solo per voi
Non mettere in pausa troppo lunga
Sta svanendo ora
Sta finendo tutto troppo presto vedrete

Presto vedrete