Accordi - La donna Cannone - De Gregori

09:07:00 0 Comments A+ a-

Video

Testo e accordi per chitarra di Francesco De Gregori


INTRO: (4 versioni in ordine di difficoltà)
                             [FA]                [SOL]
|--------------------------------|------------------------3-------|
|--------------------------------|--------1-------0-------------1-|
|--------------------------------|2-------------0-------------0---|
|------------------------------3-|------------0-------0-----------|
|----------------------------3---|----3---------------------------|
|--------------------------------|--------------------------------|
[DO]           [FA]              [DO]            [SOL]  
|0-----------------------1-------|0-------0-------0---------------|
|----1---------------1-------1-3-|----1-------1-------3---1---0---|
|--------0---1---2---------------|--------------------------------|
|--------------------------------|--------------------------------|  1°
|--------------------------------|--------------------------------|
|--------------------------------|--------------------------------|
[FA]              (chius.2° giro) [SOL]    
|------------------ -------------|----------------1-------0-------|
|1-------0--------- -------------|------------0-------------------|
|----------------2- -------------|--------0-----------0-------0---|
|----3-------3----- -----3-------|----0---------------------------|
|------------------ -3-------3---|--------------------------------|
|------------------ -------------|3-------------------------------|


     
|--------------------------------|------------------------3-------|
|--------------------------------|--------1-------0-----------3/4-|
|--------------------------------|2-------------0-----------------|
|------------------------------3-|------------0-------0-----------|
|----------------------------3---|----3---------------------------|
|--------------------------------|1---------------3---------------|
     
|0-------3---4---5---------------|0-------0-------0---------------|
|----1-----------6-----------1-3-|----1-----------0---3---1---0---|
|----------------5---------------|------------0---0---------------|
|--------------------------------|--------------------------------|  2°
|3-------------------------------|3-------------------------------|
|--------------------------------|----------------3---------------|
                   (chius.2° giro)
|------------------ -------------|------------1---0---------------|
|1-------0--------- -------------|--------1---------------3-------|
|----------------2- -------------|----2---------------0-------0---|
|----3-------3----- -----3-------|--------------------------------|
|------------------ -3-------3---|--------------------------------|
|1----------------- -------------|3-------------------------------|



|--------------------------------|--------------------------------|
|--------------------------------|----------------0-----------3/4-|
|----------------------------0h1-|2-----------2/3-----0-----------|
|--------------------------------|----3-------------------0-------|
|--------------------------------|--------3-----------------------|
|--------------------------------|--------------------------------|
     
|0-----------------------1-------|0-------0-------0---------------|
|----1---------------1-------1h3-|----1-----------0---3---1---0---|
|--------0---1---2---------------|------------0---0---------------|
|--------------------------------|--------------------------------|  3°
|--------------------------------|3-------------------------------|
|--------------------------------|----------------3---------------|
                   (chius.2° giro)
|------------------ -------------|------------1---0---------------|
|1-------0--------- -------------|--------1---------------3-------|
|2---------------2- -------------|----2---------------0-------0---|
|3---3-------3----- -----3-------|--------------------------------|
|------------------ -3-------3---|--------------------------------|
|1----------------- -------------|3-------------------------------|


     
|--------------------------------|--------------------------------|
|--------------------------------|----------------0-----------3/4-|
|----------------------------0h1-|2-----------2/3-----0-----------|
|--------------------------------|----3-------------------0-------|
|--------------------------------|--------3-----------------------|
|--------------------------------|1---------------3---------------|
     
|0-------3---4---5---------------|12------12------12--------------|
|----1-----------6----------13-15|13--------------12--15--13--12--|
|----------------5---------------|12--12------12--12--------------|
|--------------------------------|--------------------------------|  4°
|3-------------------------------|--------------------------------|
|--------------------------------|--------------------------------|
                   (chius.2° giro)
|------------------ -------------|----------------1-------0-------|
|13------12------10 -------------|------------1-------------------|
|10---------------- -----10------|----0---2-----------2-----------|
|10--10------10---- -10------10--|--------------------------------|
|------------------ -------------|--------------------------------|
|------------------ -------------|3-------------------------------|

VERSO:
[DO] Butterò questo mio enorme cuore tra le stelle un giorno
[MIm/SI] giuro che lo farò
[SOLm6/LA#] e oltre l'azzurro della tenda
nell'azzurro io vole[LAsus4]rò [LA]
[SOL#] quando la donna cannone d'oro e d'ar[DOm/SOL]gento diventerà
[SOL] senza passare per la stazione l'ultimo treno prende[SOL7]rà

TAB VERSO:
[DO]                             [MIm/SI]
|0-------0-------0-------0-------|0-------0-------0-------0-------|
|1-------1-------1-------1-------|0-------0-------0-------0-------|
|----0-------0-------0-------0---|----0-------0-------0-------0---|
|--------------------------------|--------------------------------|
|3-------------------------------|2-------------------------------|
|--------------------------------|--------------------------------|
  [SOLm6/LA#]                     [LAsus4]   [LA]
|0-------0-------0-------0-------|0-----------------------0-------|
|3-------3-------3-------3-------|3-------3-------2---------------|
|----0-------0-------0-------0---|----2-------2-------2-----------|
|--------------------------------|--------------------------------|
|1-------------------------------|0-------------------------------|
|--------------------------------|--------------------------------|
[SOL#]                           [DOm/SOL]  
|--------------------------------|--------------------------------|
|--------------------------------|4---------------4---------------|
|5---------------5---------------|5-------5-------5-------5-------|
|6-------6-------6-------6-------|----5-------5-------5-------5---|
|----6-------6-------6-------6---|--------------------------------|
|4-------------------------------|3-------------------------------|
[SOL][SOL7]
|--------1---------------1-------|--------1---------------1-------|
|0-------0-------0-------0-------|0-------0-------0-------0-------|
|0---------------0---------------|0---------------0---------------|
|----0-------0-------0-------0---|----0-------0-------0-------0---|
|--------------------------------|--------------------------------|
|3-------------------------------|3-------------------------------|


  [DO] [DO7+] [FA] (x2)  
|--------------------------------|--------------------------------|
|8-----8-12--10------12--10------|8-----8-12--10------10----------|
|9---9-------10--10----------12--|9---9-------10--10--------------|
|1010--------1010--10--10--10----|1010--------1010--10------------|
|--------------------------------|--------------------------------|
|--------------------------------|--------------------------------|

2° VERSO:
[DO] In faccia ai maligni e ai superbi
il mio [MIm/SI] nome scintillerà
[SOLm6/LA#] dalle porte della notte
il giorno si blocche[LAsus4]rà [LA]
[SOL#] un applauso del pubblico pagante [DOm/SOL] lo sottolineerà
[SOL] e dalla bocca del cannone una can[FA]zone suonerà......

CHORUS:
[LA] E con le mani amore per le [FA#m] mani ti prenderò
[SOL] e senza dire parole nel mio [RE] cuore ti porterò,
[LA] e non avrò [LA7] paura se non sarò [FA#m] bella come dici tu
[SOL] ma voleremo in cielo in carne ed ossa
[SOL7] non torneremo [DO] più____[DO/SI] [LAm7]
[SOL7sus4] na na na [DO7] na na na [FA] na
[FAm] e senza fame e senza sete, [RE] e senza ali e senza rete
[SOL] vole[SOLsus4]remo [SOL] via

(strumentale violini)      
-3-4-|5-------------------------------|----0---------...-------0-----------
-----|------------1-2-3---------------|--------------...----1------------1-
-----|----------------------------0-1-|2-------------...----------2--------
-----|--------------------------------|--------3-----...-------------------
-----|--------------------------------|--------------...-------------------
-----|--------------------------------|--------------...-------------------

[DO] Così la donna cannone
quell'e[MIm/SI]norme mistero volò
[SOLm6/LA#] tutta sola verso un cielo nero nero si incammi[LAsus4]nò [LA]
[SOL#] tutti chiusero gli occhi nell'attimo e[DOm/SOL]satto in cui sparì
[SOL] altri giurarono e spergiurarono
che non [FA] erano mai stati lì  [FA]*

[LA] E con le mani amore con le [FA#m] mani ti prenderò
[SOL] e senza dire parole nel mio [RE] cuore ti porterò,
[LA] e non avrò [LA7] paura se non sarò [FA#m] bella come vuoi tu
[SOL] ma voleremo in cielo in carne ed ossa
[SOL7] non torneremo [DO] più____[DO/SI] [LAm7]
[SOL7sus4] na na na [DO7] na na na [FA] na
[FAm] e senza fame e senza sete, [RE] e senza ali e senza rete
[SOL] voleremo via

(ripeti INTRO e chiudi)

*************
[SOLm6]=x10030 x12030
[DOm/SOL]=335543
[DO/SI]=x22010
[SOL7sus4]=320011


Accordi per chitarra da quiquo.altervista.org

Video 1983