Accordi - I'M AN ALBATRAOZ - ARON CHUPA

09:15:00 0 Comments A+ a-

Video


Testo di ARONCHUPA




Madames et Monsieurs

S'il vous plaît

soyez prêt pour AronChupa et Albatraoz


C'est parti!


Let me tell you all a story

About a mouse, name dilory

Dilory was a mouse in a big brown house

She call herself a hoe

with the money money blow

But fuck that little mouse 'couse I'm an albatraoz


I'm an albatraoz


I'm an albatraoz


Dilory said she was a mouse

Smoked the cheese and light it out

Moneyli money money hoe

Katching katching katching kablow

Dilory was a witch, yeah a sneaky little bitch

So fuck that little mouse 'cause I'm an albatrouz

I'm an albatraoz


I'm an albatraoz


Madames et Monsieurs

S'il vous plaît

soyez prêt pour AronChupa et Albatraoz


C'est parti!


I got it!


I'm an albatraoz


I'm, I'm, I'm...


Stop!


I got it


I'm an albatraoz


This is albatraoz



Video Accordi per chitarra





Struttura:              Part 1 
                        Part 2
                        Part 1 (2 volte)
                        Part 3 (6 volte)
                        Part 2 
                        Part 4
                        Part 3 (6 volte)
                        Part 2
                        Part 5
                        Part 6
                        Part 3 (10 volte)
                        Part 7
                        Part 2
                        Part 8
                        Part 6
                        Part 1 


*************************************

Part 1 : 

e|----|--------------------------------|
B|----|--------------------------------| 
G|----|--------------------------------|
D|----|--------------------------------| 
A|--3-|--33--33--33--33--33--33--33--33| 
E|----|--------------------------------|

*******************************************************************************

Part 2: I`m an Albatraoz


e|-3------------|
B|----64--3-----|
G|---------5----| 
D|--------------| 
A|-3---3---3----|
E|--------------|

*******************************************************************************

Part 3: Cm chord

e|------------------|
B|---4---4---4---4--|
G|---5---5---5---5--|   
D|---5---5---5---5--|
A|-3-------3--------|
E|-----3-------3----|

*******************************************************************************

Part 4: Beat version 1 

e|-----3---3---3---3---3--43-------|
B|------------6-------6-------4----|
G|-----------------------------5---|
D|---------------------------------|
A|-3---3---3--33---3--33--33--33---|
E|---------------------------------|


e|-----3---3---3---3---------------|
B|------------6-------64--3--------|
G|-------------------------5-------|
D|---------------------------------|
A|-3---3---3--33-------------------|
E|---------------------------------|

                    triole(634)

e|-----3---3---3---3----343-------|
B|------------6-------66-----4----|
G|----------------------------5---|
D|--------------------------------|
A|-3---3---3--33---3--33333--33---|
E|--------------------------------|


e|-----3---3---3---3---------------|
B|------------6-------64--3--------|
G|-------------------------5-------|
D|---------------------------------|
A|-3---3---3--33-------------------|
E|---------------------------------|

*******************************************************************************

Part 5: Beat version 2

e|-----3---3---3---3---3--43-------|
B|------------6---------------4----|
G|-----------------------------5---|
D|---------------------------------|
A|-3---3---3--33---3---3--33--33---|
E|---------------------------------|


e|-----3--43-------3---------------|
B|------------4-------64--3--------|
G|-------------5-----------5-------|
D|---------------------------------|
A|-3---3--33--33-------------------|
E|---------------------------------|

                    
e|-----3---3---3---3--33343-------|
B|------------6--------------4----|
G|----------------------------5---|
D|--------------------------------|
A|-3---3---3--33---3--33333--33---|
E|--------------------------------|


e|-3---33343-------3---------------|
B|------------4------6-4-3---------|
G|-------------5-------------------|
D|---------------------------------|
A|-3---3---3--33-------------------|
E|---------------------------------|

*******************************************************************************

Part 6: Beat Version 3:


e|----------3------3---3--43-------|
B|------34-6------------------4----|
G|-5--5------------------------5---|
D|---------------------------------|
A|-3--3-33-33------3---3--33--33---|
E|---------------------------------|


e|-----3--43-------3---------------|
B|------------4-------64--3--------|
G|-------------5-----------5-------|
D|---------------------------------|
A|-3---3--33--33---3---------------|
E|---------------------------------|

                    
e|----------3------3--33343-------|
B|------34-6-----------------4----|
G|-5--5-----------------------5---|
D|--------------------------------|
A|-3--3-33-33------3--33333--33---|
E|--------------------------------|



e|-3---33343-------3---------------|
B|------------4-------64-3---------|
G|-------------5----------5--------|
D|---------------------------------|
A|-3---3---3--33-------------------|
E|---------------------------------|

*******************************************************************************

Part 7: 

*******************************************************************************

Part 8: Beat Version 4:


e|-----3---3---3---3---3--43-------|
B|------------6-------6-------4----|
G|-----------------------------5---|
D|---------------------------------|
A|-3---3---3--33---3--33--33--33---|
E|---------------------------------|


e|-----3---3---3---3---------------|
B|------------6-------64--3--------|
G|-------------------------5-------|
D|---------------------------------|
A|-3---3---3--33-------------------|
E|---------------------------------|

e|-----3---3---3---3--33343-------|
B|------------6--------------4----|
G|----------------------------5---|
D|--------------------------------|
A|-3---3---3--33---3--33333--33---|
E|--------------------------------|


e|-3---3---3---3------|
B|--------------------|
G|--------------------|
D|--------------------|
A|-3---3---3---3------|
E|--------------------|

*******************************************************************************