Traduzione + Accordi - Strut - Lenny Kravitz

12:30:00 0 Comments A+ a-

Video


Testo di Strut di Lenny Kravitz

Baby do you know what I think you are?
You are a gene, you are a star
So let it out, bring it on the scene
And show the world exactly what you mean

Strut, let them see you walk
Strut, let your body talk!
Strut, show me how you work
Strut!

When you lay it down, how you hurt me so
No need to stop, baby go go go go go!
You are a freakin' angel by the way you move
Just be yourself, you've got nothing to prove!

Baby,
Strut, let them see you walk
Strut, let your body talk!
Strut, show me how you work
This is the chance for you to come yourself baby!

Strut! Strut! Strut! Strut!

When you feel the need, the need to express
Whip it off the pain, our happiness
Take it to the street 'cause it is your stage,
Just be yourself and bust out of your cage!

Baby,
Strut, let them see you walk
Strut, let your body talk!
Strut, let me see you work
Strut!
Strut, let them see you walk
Strut, let your body talk!
Strut, let me see you work
This is the chance for you to come yourself baby!
Strut, let them see you walk
Strut, let your body talk!
Strut, let me see you work!
This is the chance for you to come yourself baby!
Baby,
Strut, let them see you walk
Strut, let your body talk!
Strut, let me see you work!
This is your chance for you to come yourself baby!
Baby, Strut!!

Tabs
Main Riff
e|--------------------------------|
B|--------------------------------|
G|--------------------------------|
D|---0h2---0-2~-----0h2---0-2-----|
A|-------2--------------2---------|
E|-0------------0-0-----------3b--|

Coro
e|--------------------------------|
B|--------------------------------|
G|--------------------------------|
D|---0h2---0-2~-------------------|
A|-------2--------5-5-5-5-4-4-2-2-|
E|-0------------0-3-3-3-3-2-2-1-1-|

e|--------------------------------|
B|--------------------------------|
G|--------------------------------|
D|---0h2---0-2~-------------------|
A|-------2--------5---5/7-7-5-----|
E|-0------------0-3---3/5-5-3-----|

e|--------------------------------|
B|--------------------------------|
G|--------------------------------|
D|---0h2---0-2~-------------------|
A|-------2--------5---5/4-4-3-----|
E|-0------------0-3---3/2-2-1-----|

e|--------------------------------|
B|--------------------------------|
G|--------------------------------|
D|---0h2---0-2~-------------------|
A|-------2--------5---5/7-7-5-----|
E|-0------------0-3---3/5-5-3-----|

e|--------------------------------|
B|--------------------------------|
G|--------------------------------|
D|---0h2---0-2~-------------------|
A|-------2--------5-5-5-5-4-4-2-2-|
E|-0------------0-3-3-3-3-2-2-1-1-|

Pre-Solo
e|-------------------------------------------------------|
B|-------------------------------------------------------|
G|-------------------------------------------------------|
D|---0h2---0-2~------------------------------------------|
A|-------2--------5---5/7-7-5--7--7-7-7-7-7-9-9-9-9-9----|
E|-0------------0-3---3/5-5-3--5--5-5-5-5-5-7-7-7-7-7-3b-|

Solo
e|---------------------------------------------------------------------------------|
B|-10b12--8-----15b17r15-12----12-----------------8~-------12-14h15-14-12----12----|
G|----------9~--------------14----12----------7------9p7------------------14----12-|
D|-----------------------------------14---7-9---9----------------------------------|
A|---------------------------------------------------------------------------------|
E|---------------------------------------------------------------------------------|

e|-----------------------------------------------------12--------------------------|
B|-12-x-14-x-14-12~---12-x-14-x-14------------------12----12-15b17-15-12-----------|
G|-12-x-14-x-14-12~---12-x-14-x-14-14-12------14b16----------------------12----12--|
D|---------------------------------------14---------------------------------14-----|
A|---------------------------------------------------------------------------------|
E|---------------------------------------------------------------------------------|