Accordi - Little Monster - Royal Blood

22:53:00 0 Comments A+ a-

Video


Testo dei Royal Blood



Hey Little Monster
I got my eye on you
Where are you going? Where you running to?
Hey Little Monster
You know it’s all okay
I’m gonna love you, no matter what you say

I got love on my fingers, lust on my tongue
You say you got nothing, so come out and get some
Heartache to heartache, I’m your wolf, I’m your man
I say run Little Monster, before you know who I am.

Hey Little Creature
Tell me what’s on your mind
Where’ve you been hiding? Can I come this time?
So pleased to please you, and rip that heart off your sleeve
Let me discover

I got love on my fingers, lust on my tongue
You say you got nothing, so come out and get some
Heartache to heartache, I’m your wolf, I’m your man
I say run Little Monster, before you know who I am.



Tabs di  Little Monster

Main riff
F-----------------------------|
C----5p3---------5p3-5p3------|
G--------5~-------------------|
C--0------0-----0-------------|

verse
F-------------------------------|
C--3----------------------------|
G--3----------------------------|
C--3 hold----12slide down-------|

Coro

F-------------------------------------------|
C--8-8--10/5---5-0h5--0h5-----3-3-5-0-------|
G--8-8--10/5---5-0h5--0h5-----3-3-5-0-------|
C--8-8--10/5---5-0h5--0h5-----3-3-5-0-------|

riff 2
F------------12b13b13-10----------------|
C--------------------------12-----------|
G---------------------------------------|
C---------------------------------------|

riff 3
F------------------------------|
C------------------------------|
G------------------------------|
C-----------5b6b5-3-0----------|


F-------------------------------|
C-------------------------------|
G-------------------------------|
C----------5b6b5-3/12-----------|