Accordi - Blame - Calvin Harris ft. John Newman

08:30:00 0 Comments A+ a-

Video


Traduzione
Non riesco a dormire
Resto sveglio
È questa la donna accanto a me?
La colpa sta nascendo
Dentro di me sto male
Questo non è un sentimento che non posso provare

Quindi la colpa è della notte
Non dare la colpa a me
Non dare la colpa a me
La colpa è nella notte
Non dare la colpa a me
Non dare la colpa a me

Quindi la colpa è della notte
Non dare la colpa a me
Non dare la colpa a me
La colpa è nella notte
Non dare la colpa a me
Non dare la colpa a me

Non riesci a vederlo?
Sono stato manipolato da esso
Troppo poco all'alba
Non avevo altra scelta
Guardo
Lei aveva bisogno di parlare

Quindi la colpa è della notte
Non dare la colpa a me
Non dare la colpa a me
La colpa è nella notte
Non dare la colpa a me
Non dare la colpa a me

Quindi la colpa è della notte
Non dare la colpa a me
Non dare la colpa a me
La colpa è nella notte
Non dare la colpa a me
Non dare la colpa a me

Nessuno ha visto qualcosa
Inizia una cosa

Ho preso la difesa
Oh Prometto (sarò meglio questa volta, sarò meglio questa volta)

Non dare la colpa a me
Non dare la colpa a me

Testo e accordi per chitarra di Calvin Harris ft. John Newman

Intro : G# Cm A# Fm

Riff intro e verso

E--------3~----------------6~-----------------------3~----------|
B-----4~---------------8~----------6~---8~-------4~-------------|
G---------------------------------------------------------------|
D---------------------------------------------------------------|
A---------------------------------------------------------------|
E---------------------------------------------------------------|



G#
Can't be sleepin'
Cm
Keep on waking
A#
Is that the woman next to me?
G#
Guilt is burning
Cm
Inside I'm hurting
A#                           Fm
This ain't a feeling I can't keep
                   G#
So blame it on the night
Cm
Don't blame it on me
A#                  A#
Don't blame it on me
                G#
Blame it on the night
Cm
Don't blame it on me
A#                  A#
Don't blame it on me
                G#
Blame it on the night
Cm
Don't blame it on me
A#                  A#
Don't blame it on me
                   G#
So blame it on the night
Cm
Don't blame it on me
A#                  A#
Don't blame it on me

(Beat)

E-----------------------------------------------------------------------------|
B-----------------------------------------------------------------------------|
G-----12--12--12--12--10--------10-10-10--10--7------15--15--15--15---10s12---|
D--------------------------2x-------------------------------------------------|    2x
A---10--10--10--10------------8--8--8--8----------13--13--13--13--------------|
E-----------------------------------------------------------------------------|

G#
Can't you see it?
Cm
I was manipulated by it
A#                Fm
Too little to the dawn
G#
I had no choice in this
Cm
I was a friend she missed
A#               Fm
She needed me to talk

                   G#
So blame it on the night
Cm
Don't blame it on me
A#                  A#
Don't blame it on me
                G#
Blame it on the night
Cm
Don't blame it on me
A#                  A#
Don't blame it on me
                G#
Blame it on the night
Cm
Don't blame it on me
A#                 A#
Don't blame it on me
                   G#
So blame it on the night
Cm
Don't blame it on me
A#                 A#
Don't blame it on me

(Beat)

E-----------------------------------------------------------------------------|
B-----------------------------------------------------------------------------|
G-----12--12--12--12--10--------10-10-10--10--7------15--15--15--15---10s12---|
D--------------------------2x-------------------------------------------------|    2x
A---10--10--10--10------------8--8--8--8----------13--13--13--13--------------|
E-----------------------------------------------------------------------------|


BRIDGE

E---------------------------------------------------------------------------------------------|
B---------------------------------------------------------------------------------------------|
G---------------------------------------------------------------------------------------------|
D-----------------------------------5---5---------------------------------------5-------------|
A----6--6--6--8--6--8--6----6--6--6----6---6----6--6--6--8--6--8--6----6--6--6----6--8--6-----|
E---------------------------------------------------------------------------------------------|
     *  *  *  *  *  *  *   *  *  *  * * * *     *  *  *  *  *  *  *    *  *  *  * *  *  *

* = Palm Mute

Oh I'm so sorry, so sorry baby
Yeah
I got defense
Oh I promise (I'll be better this time, I will be better this time)
Don't blame it on me
Don't blame it on me

(Beat)

E-----------------------------------------------------------------------------|
B-----------------------------------------------------------------------------|
G-----12--12--12--12--10--------10-10-10--10--7------15--15--15--15---10s12---|
D--------------------------2x-------------------------------------------------|    4x
A---10--10--10--10------------8--8--8--8----------13--13--13--13--------------|
E-----------------------------------------------------------------------------|