Accordi Un' estate Italiana - Notti Magiche

12:02:00 0 Comments A+ a-

VideoClip Notte Magiche Italia 90 - Un estate Italiana



Testo e accordi per chitarra di Gianna Nannini ed Edoardo Bennato, nno dei mondiali di Calcio di Italia 90

Introduzione:
e|------------------------------------------7--|
B|---------------------5------5---5-8-----8----|
G|--4---4-7------4---4----------7-----5-------4|
D|----7------------7---------------------------|
A|---------------------------------------------|
E|---------------------------------------------|


e|---------------------------------------------|
B|---------------------------------------------|
G|--4---4-7------------------------------------|
D|----7-------4-5------------------------------|
A|---------------------------------------------|
E|---------------------------------------------|


G          D          Em
Forse non sarà una canzone
G          D               G
a cambiare le regole del gioco
           C           C/B        Am    C
ma voglio viverla cosi quest'avventura
  G           D                    G
senza frontiere e con il cuore in gola

G                   D           Em
E il mondo in una giostra di colori
       G        D             G
e il vento accarezza le bandiere
           C       C/B           Am   C
arriva un brivido e ti trascina via
      G           D               G
e sciogli in un abbraccio la follia


Coro:      
       D
notti magiche
     G
inseguendo un goal
           C    
sotto il cielo
        D         G
di un'estate italiana
         D
e negli occhi tuoi
           G
voglia di vincere
      C
un'estate
   D             G
un'avventura in più



(Verso )
Quel sogno che comincia da bambino
e che ti porta sempre più lontano
non è una favola - e dagli spogliatoi
escono i ragazzi e siamo noi

(Coro)
notti magiche
inseguendo un goal
sotto il cielo
di un'estate italiana

e negli occhi tuoi
voglia di vincere
un'estate
un'avventura in più


(Intro)

(Coro)
notti magiche
inseguendo un goal
sotto il cielo
di un'estate italiana

e negli occhi tuoi
voglia di vincere
un'estate
un'avventura in più
un'avventura

un'avventura in più
un'avventura goal !