Accordi - Gangnam - PSY

16:19:00 0 Comments A+ a-

Video Cover Gangnam di PSY



Tonalità: mezza tonalità più bassa

-----|-----------------------------------------|---|
-----|-----------------------------------------|---|
-----|-----------------------------------------|---|
-----|-----------------------------------------|---|
-----|-1/2--2--2--1-1/2-2-5--1/2--2--2-2-0-----|---|
-----|-------------------------------------2-0-|---|
      Intro  m  m                  m
[ Tab from: http://www.guitartabs.cc/tabs/p/psy/gangnam_style_acoustic_tab.html ]
-----|--------------------------------------------|----|
-----|--------------------------------------------|----|
-----|-----------------------9--9--9--11--11--11--|----|
-----|-----------------------9--9--9--11--11--11--|----|
-----|-1/2--2--2--1-1/2-2-5--7--7--7--9---9---9---|----|
-----|--------------------------------------------|----|
      fine    m  m            P  P  P  P   P   P

-----|-------------------------------------------|--|-------------------------|
-----|-------------------------------------------|--|-------------------------|
-----|------4--4---------4--7-------4--4-4-2-----|--|-------------------------|
-----|---------------------------------------4-2-|--|-------------------------|
-----|-1/2--2--2---1/2---2--5--1/2--2--2-2-0-----|--|-------------------------|
-----|---------------------------------------2-0-|--|-------------------------|
      Verso

-----|---------------------------------------|--------------------------------|
-----|-3----5----4------3----5----7----------|--------------------------------|
-----|-4----6----4------4----6----6----------|--------------------------------|
-----|-5----7----4------5----7----8----------|--------------------------------|
-----|-5----7----2------5----7----9----------|--------------------------------|
-----|---------------------------------------|--------------------------------|
       Coro