Accordi - Paranoid Android - Radiohead

08:41:00 0 Comments A+ a-

Paranoid Android  fa usciva 17 anni uno dei brani cult dei Radiohead
Questo pezzo è nella classifica delle 500 canzoni più belle di sempre di Rolling Stone

Video


Testo e accordi per chitarra dei RadioHead


INTRO&VERSO:
e----------------------------------------------------------------|
B-------8---------------8---------------8---------------8------8-|
G-----------8---8-----------8---8-----------8---8-----8------8---|
D----------------------------------------------------------------|
A---------------------------------8---8-------8---0--------------|
E-8---8-------8---6---6-------6---------------------------6------|

e----------------------------------------0---------------0-------|
B-------3---------------3--------3-------------------------------|
G-----------3---3-----3--------3-------3-----3---3-----3----3----|
D----------------------------------2-----------2---2-------------|
A-----------------0-------1-----------------------------------1p0|
E-3---3-------3--------------------------------------------------|

[SOLm6]=3x0330   [/FA]=1x0330    [/MI]=012330

A-0---0-0-3-0-------------3-3-5-3--...
E---------------4---4---4----------...

[DO]  [SOL#] [LA#][DO]  [SOL#]  [LA#]....

VERSO:
Please could you stop the noise, I'm trying to get some rest
From all the unborn chicken voices in my head

[SOLm6]      [/FA]         [/MI]
What's that.............................? (I may be paranoid, but not an android)
[SOLm6]      [/FA]         [/MI]
What's that.............................? (I may be paranoid, but not an android)

VERSO:
When I am king, you will be first against the wall
With your opinion which is of no consequence at all

[SOLm6]      [/FA]         [/MI]
What's that.............................? (I may be paranoid, but not an android)
[SOLm6]      [/FA]         [/MI]
What's that.............................?

A-0---0-0-3-0-------------3-3-5-3--...
E---------------4---4---4----------...

[DO]  [SOL#] [LA#][DO]  [SOL#]  [LA#]....

A-0---0-0-3-0-------------3-3-5-3--...
E---------------4---4---4----------...
Ambition makes you look pretty ugly
Kicking, screaming gucci little piggy

[DO]  [SOL#] [LA#][DO]  [SOL#]  [LA#]....

A-0---0-0-3-0-------------3-3-5-3--...
E---------------4---4---4----------...
You don't remember, You don't remember
Why don't you remember my name?
Off with his head, man, Off with his head, man
Why don't you remember my name? I guess he does...

[DO]  [SOL#] [LA#][DO]  [SOL#]  [LA#]....
[DO][SI][LA#][SOL#]  [FA]

_______________________________________________________________

Cm G Bb6 Am A
Dm A Dm Dm/C
Bb F Gm F
E   Esus4 E   A    Asus4 A

Cm   G     Bb   A
Rain down, rain down
         Dm   A      Dm Dm/C
Come on rain down on me
Bb      F
From a great height
Gm      F    E   Esus4 E   A     Asus4 A
From a great height......  height......

Cm   G     Bb   A
Rain down, rain down
         Dm  A       Dm Dm/C
Come on rain down on me
Bb        F
From a great height
Gm      F    E   Esus4 E   A     Asus4 A
From a great height......  height......

Cm
That's it sir
G
You're leaving
Bb             A
The crackle of pigskin
Dm           A
The dust and the screaming
Dm             Dm
The yuppies networking
Bb           Am
The panic, the vomit
Gm           F
The panic, the vomit
E             Esus4   E
God loves his children, God loves his children, Yeah!

A-0---0-0-3-0-------------3-3-5-3--...
E---------------4---4---4----------...

[DO]  [SOL#] [LA#][DO]  [SOL#]  [LA#]....
[DO][SI][LA#][SOL#]  [FA]

**************************

Traduzione
Per favore potreste smettere di fare rumore?
Sto provando a dimenticare?
Tutte le voci di galline non nate che sento nella testa
Hey, cosa succede?

Quando diventerò re
Sarete messi al muro per primi
Voi e le vostre opinioni
Che non contano nulla
Hey, cosa succede?

L'ambizione ti fa diventare brutto
Scalcia strilla maialino stile gucci

Non ti ricordi
Perché non ti ricordi il mio nome?
Uccidetelo, uccidilo, amico
Perché non si ricorda il mio nome?
Credo che se lo ricordi...

Piove piove
Pioggia scendi su di me
Da una grande altezza
Da una grande altezza
Piove piove
Pioggia scendi su di me
Da una grande altezza
Da una grande altezza

Lei ora deve andarsene
Il crepitare della pelle del maiale
La polvere e le urla
Gli yuppies tengono i contatti
Il panico il vomito
Il panico il vomito
Dio ama le sue creature
Dio ama le sue creature, si!