Accordi - Livin' On a Prayer - Bon Jovi

09:21:00 0 Comments A+ a-

Video


Accordi per chitarra di Livin' On a Prayer cantata dai Bon Jovi

E----------------------
B----------------------
G----------------------
D----------------------
A-----7-----5-------5--
E--0-----7----0-0-7----


verso I:
Tommy used to work on the docks
Union went on strike, he's down on his luck, it's tough
Gina works the diner all day
Working for her man, she brings home her pay for love
ooh, for love

coro:
they say we gotta hold on to what we've got
E--------------------------------------------
B--------------------------------------------
G------------------5----7-x---7----7---9-----
D------------------5----7-x---7----7---9-----
A------------------3----5-x---5----5---7-----
E--------------------------------------------

it doesn't make a difference if we make it or not
E-------------------------------------------------
B-------------------------------------------------
G---5-----------7------------x------7--7-------9--
D---5-----------7------------x------7--7-------9--
A---3-----------5------------x------5--5-------7--
E-------------------------------------------------

we've got each other and that's a lot for love we'll give it a shot!
A------------------------------------------------------------------
B------------------------------------------------------------------
G-5---------7----------x--7-----7--9---7----5-----7--7--7--7-------
D-5---------7----------x--7-----7--9---7----5-----7--7--7--7-------
A-3---------5----------x--5-----5--7---5----3-----5--5--5--5-------
E------------------------------------------------------------------

Whoa! We're half way there
E-------------------------------
B-------------------------------
G-----5----5/7------------------
D-2---5----5/7------------------
A-2---3----3/5------------------
E-0-----------------------------

Whoa! Livin' on a prayer!
E------------------------------
B------------------------------
G-----5-----7------------------
D-5---5-----7------------------
A-5---3-----5------------------
E-3----------------------------

Take my hand and we'll make it, I swear
E----------------------------------------
B----------------------------------------
D----------------------------------------
G---------5--------------7---------------
D-2-------5--------------7---------------
A-2-------3--------------5---------------
E-0--------------------------------------

Whoa! Livin' on a prayer!
E--------------------------
B--------------------------
G----5---7-----------------
D-5--5---7-----------------
A-5--3---5-----------------
E-3------------------------

verse II:
Tommy's got his six string in hock
Now he's holding in when he used to make it talk so though,
mmmh it's tough
And Gina dreams of running away
When she cries in the night, Tommy whispers
Baby, it's okay.......someday...

coro

e|------------------12-14-15---------------------|---------------------------|
B|---------------------------15-12-13-15-15-15^--|--8-8-10-8-----------------|
G|-----------------------------------------------|------------11h12p11-------|
D|-------5h7-7^----------------------------------|---------------------12----|
A|-7p5-7--------5-5------------------------------|------------------------12-|
E|-----------------------------------------------|---------------------------|

e|-12-14-15---------------------|
B|----------15-12-13-12-----15^-|
G|----------------------12------|
D|------------------------------|
A|------------------------------|
E|------------------------------|

Testo
Once upon a time 
Not so long ago 
Tommy used to work on the docks 
Union's been on strike 
He's down on his luck...it's tough, so tough 
Gina works the diner all day 
Working for her man, she brings home her pay 
For love - for love 

She says: We've got to hold on to what we've got 
'Cause it doesn't make a difference 
If we make it or not 
We've got each other and that's a lot 
For love - we'll give it a shot 

We're half way there 
Livin' on a prayer 
Take my hand and we'll make it - I swear 
Livin' on a prayer 

Tommy got his six string in hock 
Now he's holding in what he used 
To make it talk - so tough, it's tough 
Gina dreams of running away 
When she cries in the night 
Tommy whispers: Baby it's okay, someday 

We've got to hold on to what we've got 
'Cause it doesn't make a difference 
If we make it or not 
We've got each other and that's a lot 
For love - we'll give it a shot 

We're half way there 
Livin' on a prayer 
Take my hand and we'll make it - I swear 
Livin' on a prayer 

We've got to hold on ready or not 
You live for the fight when it's all that you've got 

We're half way there 
Livin' on a prayer 
Take my hand and we'll make it - I swear 
Livin' on a prayer 


Traduzione
C’era una volta 
Non molto tempo fa 
Tommy lavorava al porto 
I sindacati sono in sciopero 
non è molto fortunato, è dura, così dura... 
Gina lavora alla tavola calda tutto il giorno 
lavora per il suo uomo, porta a casa la sua paga 
per amore, per amore 

Lei dice: dobbiamo aggrapparci a quel che abbiamo 
perché non fa differenza 
se ce la facciamo o no 
l'uno può contare sull'altro e questo è molto 
per amore, avremo un’opportunità 

siamo a metà strada 
vivendo di una preghiera 
prendimi la mano e ce la faremo, lo giuro 
Vivendo di una preghiera 

Tommy ha dato in pegno la sua chitarra 
Ora sta reprimendo ciò che utilizzava 
farla parlare è così dura, è dura 
Gina sogna di scappare 
quando piange nella notte 
Tommy sussurra: tesoro andrà tutto bene, un giorno 

dobbiamo aggrapparci a quel che abbiamo 
perché non fa differenza 
se ce la facciamo o no 
l'uno può contare sull'altro e questo è molto 
per amore, avremo un’opportunità 

siamo a metà strada 
vivendo di una preghiera 
prendimi la mano e ce la faremo, lo giuro 
Vivendo di una preghiera 

dobbiamo stringere i denti e andare avanti 
sia se siamo pronti o meno 
Si vive per combattere 
se è tutto ciò che si ha 

siamo a metà strada 
vivendo di una preghiera 
prendimi la mano e ce la faremo, lo giuro 
Vivendo di una preghiera