Testo + traduzione + accordi - Jubel - KLINGANDE

02:38:00 0 Comments A+ a-

Video





Testo e accordi per chitarra di
C Em Am F


C
Save me

Em
Save me

Am      F
Save me




C                          Em                           Am              F
You think I don't laugh oh, do things I can like so, why are we losing time

C                       Em                      Am                      F    C
I don't want to get up oh, bring me what I need so, why are we losing time

Em                  Am                         F
It's like I've seen the light but you have never known




4 Volte

E-------------------------|-------------------------|
B-------------------------|-------------------------|
G---5-5--7-7--5-----------|---5-5--7-7--5-----------|
D---------------7---5---7-|---------------7---5-----|
A-------------------------|-------------------------|
E-------------------------|-------------------------|


Dopo aver contato one, two, three, four
E-------------------------|-------------------------|
B-------------------------|-------------------------|
G---5-5--7-7--5-----------|---5-5--7-7--5--\9--5----|
D---------------7---5---7-|-------------------------|
A-------------------------|-------------------------|
E-------------------------|-------------------------|


E-------------------------|-------------------------|
B-------------------------|-------------------------|
G---5-5--7-7--5-----------|---5-5--7-7--5-----------|
D---------------7---5---7-|---------------7---5-----|
A-------------------------|-------------------------|
E-------------------------|-------------------------|


E-------------------------|-------------------------|
B-------------------------|-------------------------|
G---5-5--7-7--5-----------|---5-5--7-7--5--\9--5----|
D---------------7---5---7-|-------------------------|
A-------------------------|-------------------------|
E-------------------------|-------------------------|


E-------------------------|-------------------------|
B-------------------------|-------------------------|
G---5-5--7-7--5-----------|-------------------------|
D---------------7---5---7-|---------5---------------|
A-------------------------|--5--\7-----7--5---------|
E-------------------------|-------------------8-----|


Parte con il sax


E-----5--3------------------|-----5--3-----------------|
B----------5--3-------------|-----------5--3-----------|
G---5-------------5---------|---5-------------5--------|
D---------------------------|--------------------------|
A---------------------------|--------------------------|
E---------------------------|--------------------------|


E-----5--3------------------|-------------------------|
B----------5--3-------------|--b3(4)3--3----3---------|
G---5-------------5---------|------------5----5-------|
D---------------------------|-------------------------|
A---------------------------|-------------------------|
E---------------------------|-------------------------|

Traduzione
Salvami
salvami
salvami

tu pensi che io non rida
oh, faccio quel che posso
quindi, perchè stiamo perdendo tempo?

non voglio alzarmi,
portami quello di cui ho bisogno
quindi, perchè stiamo perdendo tempo?

E' come se avessi visto la luce
ma tu non l'hai mai saputo