Testo + accordi + traduzione - Cheating - John Newman

08:34:00 0 Comments A+ a-

Video


Testo e accordi per chitarra di John Newman

Introduzione


e|---------------------------------------------------------------------------|
B|------7--9--7----9p7---------------7--9--7-----------7---------------------|
G|------7--9--7----9p7---------------7--9--7----9p7h9-----7h9p7--------------|
D|----------------------9--7h-8--9-------------------------------------------|
A|---------------------------------------------------------------------------|
E|---7-----------------------------------------------------------------------|


Alternate ending goes like: In shape of Bm


e|---------2---------------------|
B|--5p3h5-----3h5p3--------------|
G|--------------------4----------|




Coro
------

         Bm
I could love you
     
A
Better,

E                    E
Better than you once knew


          Bm
If you're cheatin'

       A
cheat on yeah

       E
Cause cheating's just a thing you do,

       E
its just a thing you do yeah






e|---------------------------------------------------------------------------|
B|-----3--5--3---------------------------------------------------------------|
G|-----4--2--4---------------------------------------------------------------|
D|-----4--4--4----2p0h2--4--0h2p0--------------------------------------------|
A|--2--------------------------------2--    Go straight to Verso 2     ------|
E|---------------------------------------------------------------------------|



Verso 1
-------

           Bm           E
So you're sunday monday aah

   D                    F7
Hanging with your boy again

           Bm           E
Came a' back on the tuesday

   D                    F7
I told him to come here again




        Filler 1st part Bm lick (high)

Well its time to tell you

        Filler 2nd part Bm lick (low)

yeah its time to tell you




Coro
------

          Bm
I could love you

  A
Better

  E                       E
Better than you once knew na na na


         Bm
If you're cheatin'

 A
cheat on

         E                    
Cause cheating's just a thing you do

         E
its just a thing you do yeah




Filler 1st part Bm lick (high)



Verso 2
-------

            Bm              E
So you're friday saturday

  D                             F7
Groovin' with that boy again

     Bm                 E
You came home a' cryin

   D                      F7
I told you to leave again' nah na


Bm - lick, same goes.

Time to tell you

Bm

Yeah its time to tell you


Coro
------

        Bm
I could love you

A
Better aw na

E                        E
Better than you once knew no no no

            Bm
If you're cheatin'
   
      A
cheat on yeah

E                               E
Cause cheating's just a thing you do


aw yeah



Bridge strumming thing

e|---------------------------------------------------------------------------|
B|---------------------------------------------------------------------------|
G|-----4-44-44-4-----4-44-44-4-----4-44-44-4-----4-44-44-4-------------------|
D|------------------------------2-------------2------------------------------|
A|--2-------------4----------------------------------------------------------|
E|---------------------------------------------------------------------------|

e|---------------------------------------------------------------------------|
B|---------------------------------------------------------------------------|
G|-----4-44-44-4-----4-44-44-4-----4-44-44-4-----4-44-44-4-------------------|
D|---------------------------------------------------------------------------|
A|--2-------------4----------------------------------------------------------|
E|------------------------------0-------------0------------------------------|  X2



We need to talk now baby

wooo so serious now alright


you done some things so bad to me o oh



you went behind my back

you made me feel sorry


you went behind my back

you made me feel sorry


you went behind my back

you made me feel sorry



you went behind my back


*Start strumming Bm to go into Coro again*

woooo na



Coro
------

        Bm
I could love you

A
Better aw na

E                        E
Better than you once knew nah nah nah

            Bm
If you're cheatin'
   
      A
cheat on yeah

E                               E
Cause cheating's just a thing you do


mmm mmmm mmm


e|-------------------------------------------------|
B|------7--9--7-----------7--9--7b-----------------|
G|------7--9--7-----------7--9--7b-----------------|
D|-------------------------------------------------|
A|---------let ring----------------bend up---------|
E|---7-----------------7---------------------------|

Traduzione
potrei amarti
meglio
meglio di quanto tu sappia
se stai tradendo
tradendo, si
perchè tradire è solo una cosa che fai
è solo una cosa che fai, si.
quindi sei domenica, lunedì naah
esci ancora col tuo ragazzo
torni il giovedì naah
gli ho detto di tornare
beh è tempo di dirti,
si è il momento di dirti
potrei amarti
meglio
meglio di quanto tu sappia
se stai tradendo
tradendo, si
perchè tradire è solo una cosa che fai
è solo una cosa che fai, si.
quindi sei venerdì, sabato
godendo ancora con quel ragazzo.
torni a casa a piangere
ti ho già detto di lasciarlo non ora
è tempo di dirti,
si è tempo di dirtelo
potrei amarti
meglio aw na
meglio di quanto tu sappia
se stai tradendo
tradendo, si
perchè tradire è solo una cosa che fai
è solo una cosa che fai, si.
aw si
dobbiamo parlare ora tesoro
wooh, una cosa davvero seria
mi hai fatto qualche brutta cosa ah
l’hai fatto alle mie spalle
mi hai fatto sentire dispiaciuto
l’hai fatto alle mie spalle
mi hai fatto sentire dispiaciuto
l’hai fatto alle mie spalle
mi hai fatto sentire dispiaciuto
l’hai fatto alle mie spalle
wooh.
potrei amarti
meglio
meglio di quanto tu sappia
se stai tradendo
tradendo, si
perchè tradire è solo una cosa che fai
è solo una cosa che fai, si.