Testo + accordi - Stone - Alice In Chains

11:38:00 0 Comments A+ a-

Video



Testo


I know you think I'm wrong but I'm not your tour guide
Have a guess i don't let you look inside

Cold dry stone

What makes you want to carve your initials in me
Rained and weathered erasing hard to read
Find me distant outwardly rough obscene

Cold dry stone

Cold and dry, a stone
Cold and dry, a stone

I'm not a cornerstone in a palace for you
Time will bring your very own hard truth
Not to worry ice covered rocks still move

Cold dry stone
Cold dry stone



Tabulazione


Intro è solo basso, poi la chitarra entra in gioco la stessa parte:

e|-----------------------------------------------------------------------------|
B|-----------------------------------------------------------------------------|
G|-----------------------------------------------------------------------------|
D|-----------------------------------------------------------------------------|
A|-----------------------------------------------------------------------------|
E|--4^5^4--2--2-2--0-1-2--0-1--4^5^4--2-2-2--0-1-2--0-1------------------------|
                                   x  x  x    x  x                              x  x  x    x  x

Dopo quattro tempi della parte principale alla chitarra, la curva viene in:
e|---------------------------------------------------------------------------|
B|-------11^12---------------------------------------------------------------|
G|---------------------------------------------------------------------------|
D|---------------------------------------------------------------------------|
A|---------------------------------------------------------------------------|
E|---------------------------------------------------------------------------|

Gioca il verso lo stesso della intro
Non sono sicuro circa la seconda parte, quindi lascio a qualcun altro
Coro ha la parte intro con la curva, e questa piccola cosa in background:
e|-----------------------------------------------------------------------------|
B|-------------------------10-11-----------------------------------------------|
G|----8-9-11-12-11-9-8-12------------------------------------------------------|
D|-----------------------------------------------------------------------------|
A|-----------------------------------------------------------------------------|
E|-----------------------------------------------------------------------------|

Dopo il secondo ritornello, va a questa cosa:
e|-----------------------------------------------------------------------------|
B|-----------------------------------------------------------------------------|
G|-----------------------------------------------------------------------------|
D|-----------------------------------------------------------------------------|
A|-----------------------------------------------------------------------------|
E|---0-1-2-3---0-2-3--5-6-5--2-------------------------------------------------|

Si blocca su questo per un po ', poi colpisce l'assolo:
e|-----------------------------------------------------------------------------|
B|---7h8p7h8p7--7--------------------------------------------------------------|
G|----------------7------------------------------------------------------------|
D|-----------------9--9-7-5h7p5-4-5-4------------------------------------------|
A|-------------------------------------7---------------------------------------|
E|-----------------------------------------------------------------------------|

e|---------------------------------------------12-------------------------------|
B|---7h8p7h8p7--7---------------------------------------------------------------|
G|----------------7---7/9--9-11-12-11-9-12-9--9---------------------------------|
D|-----------------9------------------------------------------------------------|
A|------------------------------------------------------------------------------|
E|------------------------------------------------------------------------------|

e|---19-15-14------------------------------------------------------------------|
B|------------15-12------------------------------10/12-------------------------|
G|------------------12-11---9-11-12-11-9\8-9/11-------9------------------------|
D|-----------------------------------------------------------------------------|
A|-----------------------------------------------------------------------------|
E|-----------------------------------------------------------------------------|

e|--19-15----------------------------------------------------------------------|
B|--------19-19------------------16^17-----------------------------------------|
G|-------------19-14-14^15^14--------------------------------------------------|
D|-----------------------------------------------------------------------------|
A|-----------------------------------------------------------------------------|
E|-----------------------------------------------------------------------------|


Ecco la parte dietro l'assolo:
e|-----------------------------------------------------------------------------|
B|-----------------------------------------------------------------------------|
G|---4---4-5---5-7--9------4---4-2---2-----------------------------------------|
D|---4---4-5---5-7--9------4---4-2---2-5---2-----------------------------------|
A|---2---2-3---3-5--7------2---2-0---0-5---2-----------------------------------|
E|--------------------------------------5---2----------------------------------|

e|-----------------------------------------------------------------------------|
B|-----------------------------------------------------------------------------|
G|---4---4-5---5-7--9-----7----2-----------------------------------------------|
D|---4---4-5---5-7--9-----7----2-----------------------------------------------|
A|---2---2-3---3-5--7-----5----0-----------------------------------------------|
E|-----------------------------------------------------------------------------|