Testo + accordi - Beautiful Girl - INXS

10:00:00 0 Comments A+ a-

Video



Testo e accordi degli INXS

Intro: B E B E B E B E Abm Ebm Abm Ebm E F# E F#


  B         E
----------------0-----||
------4-----------0---||
----4---4-----1-----1-||
--4-------4-2---------||
----------------------||
----------------------||


(piano part)
    B     E     B     E           B     E     B     E
--------------------------------|-----------------------------|
------------4-4-----------------|---------4-4-----------------|
--------4-6---------4-6-4---4---|-----4-6---------4-6-4---4---|
----4-6---------4-6-------6-----|-4-6---------4-6-------6-----|
--------------------------------|-----------------------------|
--------------------------------|-----------------------------|
    Abm   Ebm  Abm   Ebm   E     F#      E     F#
----4-2-4------4-2-4-------4-2-----------4-2------------------|
----------4----------4-2-------4-2-----------4-2--------------|
-------------------------4---------4-1-4---------4-1-4-1------|
---------------------------------------------------------4----|
--------------------------------------------------------------|
--------------------------------------------------------------|

       B               E      B                  E
Nicky's in the corner, with a black coat on

       B               E        B                E
Running from a bad home, with some cat inside

       B                  E        B                E
Now where did you find her, among the neon lights

       B                 E                      B          E
That haunt the streets outside, she says stay with me

       F#         Abm             E
Beautiful girl (stay with me)

       F#         Abm             E
Beautiful girl (stay with me)

       C#m           E
She wanna go home




       B                E       B                 E
From doorway to doorway, street corner to corner

       B     E                  B        E              B
Neon ghosts in the city, and she says stay with me

(same chords as intro)
Stay with me
Stay with me
Stay with me

(same chords as first stanza and chorus)
She's so scared, so very frightened
Anything can happen, right here tonight
Beautiful girl (stay with me)
Beautiful girl (stay with me)
She wanna go home

       B          E
Stay with me (beautiful girl)

       B          E
        Stay with me (beautiful girl)

       B          E
        Stay with me (beautiful girl)

       B          E                   B
        Stay with me (beautiful girl)