Testo + accordi Sotto bombardamento - Ligabue

09:53:00 0 Comments A+ a-

Video


Testo e accordi per chitarra di Luciano Ligabue


INTRO:
[MIm]
e-------------------------------|-------------------------------|
B-------------------------------|-------------------------------|
G-------------------------------|-----0-----0-----0-----0-----0-|
D---------5---------------------|-------------------------------| (TAB**)
A-5/7-7---7---7---5/7-7---------|-5h7---5h7---5h7---5h7---5h7---|
E-0---0-------0---0---0---5---7-|-0-----0-----0-----0-----0-----|

e-------------------------------|-------------------------------|
B---------8---------------------|-----8-----8-----8-----8-----8-|
G-7/9-9-------9---7/9-9---------|-7h9---7h9---7h9---7h9---7h9---| (TAB**)
D-------------------------7---9-|-------------------------------|
A-------------------------------|-------------------------------|
E-------------------------------|-------------------------------|

[LA5]  [RE5]  [DO5][SOL5][RE5]
e----------------------------------------
B----------------------------------------
G--------7------5--------7----7/9\7-5-0--
D-7------7------5---5----7--------------- x4
A-7------5------3---5----5---------------
E-5-----------------3--------------------
oppure
[LAsus2] [REsus2] [DOadd9][SOL][REsus2]
e-0------0---------------0----0----------
B-0------3------3---3----3----3/5\3-1----
G-2------2------0---0----2------------0--
D-2------0------2---0----0--------------- x4
A-0-------------3---2--------------------
E-------------------3--------------------

[LA5] Tieni giù la testa che [SOL5] [LA5] volano mig volano tito[SOL5]li
[LA5] anche tu vedo che [SOL5] ti [LA5] senti nuda come me
G-7-5----   B-3-1----
D-----7--   G-----2--
[LA5] Metti qui, più sento e [SOL5] [LA5] meno meno meno sento [SOL5]
[LA5] Ci si sente profughi [SOL5] [LA5] sotto bombardamento

Di[DO]cevi che il mondo [SOL] va cambiato
e intanto è [DO] lui che [SOL] cambia [RE] te
di[DO]cevi che il mondo [SOL] va capito
è lui che [DO] non ca[DO7+]pisce [DO] te
G-----0------
D-0h2-----2--
[RE7] non ca[RE6]pisce [RE7] te,
G-----0------
D-0h2-----2--
[FA] non ca[FAadd#11]pisce [FA] te
[MIm7] [SOL]

[LA5] Parla più piano [RE5] che non ti sento
[DO5] sotto sotto [SOL5] sotto sotto [RE5] bombardamento
B--3/5\3-1---
G----------0-
Chiudimi a chiave quando mi hai dentro
sotto sotto sotto sotto bombardamento
oh oh oh oh oh oh oh oh

Il [FA] fondo si allarga spinto dal vento, [SOL] sotto bombardamento

(TAB**)

[LA5] Tieni giù la testa che [SOL5] [LA5] volano news volano missili
Stiamo qui nel rifugio che viveri ce n’è ce n’è
G-7-5----   B-3-1----
D-----7--   G-----2--
Ti diranno sempre che uno vince e l’altro perde
Ci sarà un antidoto per questo overdose di ...

Di[DO]cevi che il mondo [SOL] va cambiato
e intanto è [DO] lui che [SOL] cambia [RE] te
di[DO]cevi che il mondo [SOL] va colpito
e intanto [DO] lui col[DO7+]pisce [DO] te
[RE7] lui col[RE6]pisce [RE7] te,
[FA] lui ca[FAadd#11]pisce [FA] te
[MIm7] [SOL]

[LA5] Parla più piano [RE5] che non ti sento
[DO5] sotto sotto [SOL5] sotto sotto [RE5] bombardamento
B--3/5\3-1---
G----------0-
Chiudimi a chiave quando mi hai dentro
sotto sotto sotto sotto bombardamento
oh oh oh oh oh oh oh oh

Il [FA] fondo si allarga spinto dal vento, [SOL] sotto bombardamento

[LA5] [DO5] [RE5] [FA5]

oh [LAsus2] oh, oh [REsus2] oh,
oh [DOadd9] oh [SOL] oh [REsus2] oh__________

[LA5] Parla più piano [RE5] che non ti sento
[DO5] sotto sotto [SOL5] sotto sotto [RE5] bombardamento
Chiudimi a chiave quando mi hai dentro
sotto sotto sotto sotto bombardamento
[LAsus]...
e--------------------------------|-------------------------------|
B--------------------------------|-------------------------------|
G----------5---------------------|-----5-----5-----5-----5-----5-|
D--5/7-7-------7---5/7-7---------|-5h7---5h7---5h7---5h7---5h7---|
A--------------------------5---7-|-------------------------------|
E--------------------------------|-------------------------------|

********************
[LA5]=577xxx x022xx
[SOL5]=355xxx xx00xx
[DOadd9]=x3203x
[FAadd#11]=13300x


Accordi da quiquo.altervista.org