martedì 21 febbraio 2012

I Can't Stand The Rain Testo + Accordi

Video di Seal


Testo e accordi  dei The Commitments

e|------------------------------------------------------------|
B|------------------------------------------------------------|
G|---------------------11--11------11-------------------------|
D|--11---11---11---11----------11-----------------------------|
A|--9----9----9----9-----------9------------------------------|
E|------------------------------------------------------------|


                  F#
I can't stand the rain against my window
B                        F#
Bringing back sweet memories
           F#
Hey window pane do you remember
B                    F#
How sweet it used to be

E
When we were together
F#
Everything was so grand
               A
Now that we've parted
             Abm                     C#
There's one sound that I just can't stand...

F#                 F#
I can't stand the rain against my window
B                        F#
Bringing back sweet memories
                  F#
I can't stand the rain against my window
B                         F#
'Cause he's not here with me

E
Alone with the pillow
F#
Where his head used to lay
A
I know you've got some sweet memories
            Abm                            C#
But like a window you ain't got nothing to say


[Interlude - Horn Riff]

Dbl-Stop approximation of Horn interlude
    F#                 E              F#               A      Abm    C#
e|--------------------------------------------------------5---4-------|
B|--7-7-9-11-11-9-7-7--5-5-7-9-9-7-5--7-7-9-11-11-9-7-----------------|
G|--6-6-8-11-11-8-6-6--4-4-6-9-9-6-4--6-6-8-11-11-8-6--5/6------------|
D|----------------------------------------------------------5/6-------|
A|--------------------------------------------------------------------|
E|--------------------------------------------------------------------|

                  F#
I can't stand the rain against my window
B                        F#
Bringing back sweet memories, hey
                  F#
I can't stand the rain against my window, oh no no
B                         F#
'Cause he's not here with me, uh

E
Alone with the pillow uh uh
F#
Where his head used to lay, yeah
A
I know you've got some sweet memories
           Abm                             C#
But like a window you ain't got nothing to say...

(repeat lyric below to fade)
F#
Uh, uh, I can't stand the rain...
B
Oohh !... Get off my window...
Get off my window nah,
F#
I can't stand the rain

Nessun commento: