Testo e accordi Nuovi Mondi di Raf

10:00:00 0 Comments A+ a-

Video

Testo e accordi di Raf
INTRO:[MIm] [DO] [SOL] [REadd11] (x2)
e-------------------------|-------------------------|
B-----------3----------3--|-----------3----------3--|
G------0-------------0----|------0-------------0----|
D-4----------------4------|-0----------------4------|
A-------------3-----------|-------------5-----------|
E-0-----------------------|-3-----------------------|

e-------------------------|-----------0-------------|
B-----------3----------3--|-----------3-------------|
G------0-------------0----|------0----4-------------|
D-4----------------4------|-0---------0-------------|
A-------------3-----------|-----------5-------------|
E-0-----------------------|-3-----------------------|

[MIm] Scopri[DO]remo nuovi [SOL] mondi [REadd11]
[MIm] finché [DO] questo viaggio [SOL] và [REadd11]
[MIm] soli[DO]tudini e tra[SOL]monti [REadd11]
[MIm] sopra [DO] tutte le cit[SOL]tà [REadd11]

[DO7+] C'è un futuro, c'è un se[MIm]condo [RE]
[DO7+] c'è un ricordo di real[LAsus2]tà... sperando

[SOL] Chi riscoprirà l'amore [RE] e lo crescerà
[MIm] come un fiore il figlio che ver[DO]rà
[RE][SOL] forse ci sarà, [SI7sus4] forse ci sarà
[MIm] quella grande [MIm/RE#] forza che non [MIm/RE] finirà__ [MIm/DO#]
[SOL] quando il vento quando è luce [SI7sus4] muove la marea
[MIm] e regala [MIm/RE] nuova pace [DO] mentre crea
[/SI][LAm] noi cerchiamo vita inven[MIm]tandoci ener[LA7]gia
che [DO] muore e fa' [REadd11] morire.
[MIm] [DO] [SOL] [REadd11] (x2)

[MIm] Scopri[DO]remo nuovi [SOL] mondi [REadd11]
[MIm] solo [DO] per distrugger[SOL]li [REadd11]
[MIm] rifa[DO]remo gli oriz[SOL]zonti [REadd11]
[MIm] con i [DO] nostri limi[SOL]ti [REadd11]

[DO7+] Nel silenzio di una [MIm] sera [RE]
[DO7+] qui con te io non av[LAsus2]rò... paura

[SOL] Chi riscoprirà l'amore [RE] e lo crescerà
[MIm] come un fiore il figlio che ver[DO]rà
[RE][SOL] forse ci sarà, [SI7sus4] forse ci sarà
[MIm] quella forza [MIm/RE#] che non può fi[MIm/RE]nire ma__i [MIm/DO#]
[SOL] quando il vento quando è luce [SI7sus4] muove la marea
[MIm] e regala [MIm/RE] nuova pace [DO] mentre crea
[/SI][LAm] notte sta arrivando e un altro [MIm] giorno passe[MIm/DO#]rà
tu [DO] dormi [RE] e il viaggio [MIm] va [DO] [SOL] [REadd11]
e il viaggio [MIm] va [DO] [SOL] [REadd11]...

accordi da quiquo.altervista.org