Accordi e testo - Shape Of My Heart di Sting

17:00:00 0 Comments A+ a-

Video


Testo e accordi di Sting

RIFF: INTRODUZIONE(x1) VERSO(x5)
   MIm             RE6     LAm/DO   SI7sus4   SI7
|-3-------3----2------2--|-0-------0----0--------|
|------0-----------0-----|---------------------4-|
|------------------------|------2----------2-----|
|----2-------0---0-------|-----------------------|
|------------------------|----3------(3-2)---2(2)|
|------------------------|-----------------------|
  m  M    m    M      M       M I     M M  I M m
                                               M

  LAm7       RE6          LAm/DO   SI7sus4   SI7
|-3-------3----2------2--|-0-------0----0--------|
|------1-----------0-----|---------------------4-|
|------------------------|------2----------2-----|
|----2-------0---0-------|-----------------------|
|------------------------|----3------(3-2)---2(2)|
|------------------------|-----------------------|
  m  M I  m    M      M       M I     M M  I M m
                                               M

  DO6                     SOLadd9 SOL  SI7    
|--------0-----3--3-0----|-----------------------|
|------------------------|----3--3-------------4-|
|------2----2----------2-|----2--0---------------|
|------------------------|------------------4----|
|-2-3--------------------|---------------2-------|
|------------------------|-3---------3-----------|
  M M  I    I  A  A    I   M  A  A   M   I  A  m
                              I
 DO7+      SI7sus4          MIm
|-0--0--------0----------|-0---------------------|
|-0--0--------0----------|-0---------------------|
|-0--0--------2----------|-0---------------------|
|------------(2)---------|-2---------------------|
|-3----------------------|-2---------------------|
|-------------2----------|-0---------------------|
  A           A            A
              P            M

Testo
VERSO 1: (come INTRO)
[MIm] He deals the [RE6] cards
as a [LAm/DO] meditation [SI7sus4][SI7]
[LAm7/MI] And those he [RE6] plays
never [LAm/DO] suspect [SI7sus4][SI7]
[DO6] He doesn't play for
the [SOL] money he [SI] wins
[DO7+] He doesn't [SI7sus4] play for res[MIm]pect

VERSO 2:
He deals the cards to find the answer
The sacred geometry of chance
The hidden law of a probable outcome
The numbers lead a dance

CORO:(sempre come INTRO)
I know that the spades are swords of a soldier
I know that the clubs are weapons of war
I know that diamonds mean money for this art
But that's not the shape of my heart

VERSO 3:
He may play the jack of diamonds
He may lay the queen of spades
He may conceal a king in his hand
While the memory of it fades

CORO:
I know that the spades are swords of a soldier
I know that the clubs are weapons of war
I know that diamonds mean money for this art
But that's not the shape of my [MIm] heart

    MIm        MIm/RE       MIm/DO      SI7sus4
|-0-----0-----0-----0----|-0-----0-----0----0----|...
|-0-----0-----0-----0----|-0-----0-----0----0----|...
|-0-----0-----0-----0----|-0-----0-----2----2----|...
|-2-----------0----------|-----------------------|...
|------------------------|-3---------------------|...
|------------------------|-------------2---------|...
                     That's not the sha________pe...  shape of my...

(BRIDGE-5 : si ripete il riff 5 semitoni sotto)
...[SIm7] hea_________rt
   SIm             LA6     MIm/SOL   FA#7/4   FA#7
|------------------------|-----------------------|
|-3-------3----2------2--|-0-------0----0--------|
|------------------------|---------------------3-|
|------4-----------4-----|------2----------2-----|
|----2-------0---0-------|-----------------------|
|------------------------|----3------(3-2)---2(2)|
  M  I A  M    I   A  I       M I     M M  I M A
                                               M

  MIm7          LA6     MIm/SOL   FA#7/4   FA#7
|------------------------|-----------------------|
|-3-------3----2------2--|-0-------0----0--------|
|------0-----------------|---------------------3-|
|------------------4-----|------2----------2-----|
|----2-------0---0-------|-----------------------|
|------------------------|----3------(3-2)---2(2)|
  M  I    M    I   A  I       M I     M M  I M A
                                               M

  SOL6                     REadd9 RE  FA#7
|------------------------|-----------------------|
|--------0-----3--3-0----|-----------------------|
|------------------------|---------2--------3----|
|------2----2----------2-|-2-2-0---0-------------|
|------------------------|---------------4-----4-|
|-2-3--------------------|------------2----------|
  M M  I    I  A  A    I   I I     I  I  A  M  A

 SOL       FA#sus4          SIm      SIm7
|------------------------|-----------------------|
|------------------------|-3----------3----------|
|-4--4--------4----------|-4----------2----------|
|-5--5--------4----------|-4----------4----------|
|-5--5--------4----------|-2----------2----------|
|-3-----------2----------|-----------------------|

 SOL       FA#sus4          SOL
|------------------------|-----------------------|
|------------------------|-----------------------|
|-4--4--------4----------|-4---------------------|
|-5--5--------4----------|-5---------------------|
|-5--5--------4----------|-5---------------------|
|-3-----------2----------|-3---------------------|

(BRIDGE+5)

VERSO 4: (come INTRO)
And if I told you that I loved you
You'd maybe think there's something wrong
I'm not a man of too many faces
The mask I wear is one

VERSO 5:
Those who speak know nothing
And find out to their cost
Like those who curse their luck in too many places
And those who fear are lost

CORO:
I know that the spades are swords of a soldier
I know that the clubs are weapons of war
I know that diamonds mean money for this art
But that's not the shape of my [MIm] heart [MIm/RE]
[MIm/DO] That's not the [SI7sus4] shape shape of my [MIm] heart [MIm/RE]
[MIm/DO] That's not the [SI7sus4] sha____________pe
shape of my [MIm] heart

|-3-------3----2------2--|-0-------0----0--------|
|------0-----------0-----|---------------------4-|
|------------------------|------2----------2-----|
|----2-------0---0-------|-----------------------|
|------------------------|----3------(3-2)---2(2)|
|------------------------|-----------------------|

|-3-------3----2------2--|-0-------0----0--------|-------0-
|------1-----------0-----|---------------------4-|------0--
|------------------------|------2----------2-----|-----0---
|----2-------0---0-------|-----------------------|----2----
|------------------------|----3------(3-2)---2(2)|---2-----
|------------------------|-----------------------|--0------