Testo + traduzione + accordi - Shimbalaiè - Maria Gadù

13:17:00 0 Comments A+ a-

Video



Testo e accordi di Maria Gadù
Tom: C

(intro 4x)


E|----8--7-------0-------0-------0--|
B|----8------8---------8---8---8----|
G|----0--------------0-------0------|
D|----------------------------------|
A|-----------------8----------------|
E|--8------8---8--------------------|


(dedilhado 1º refrão)


C C7M F7M(9) G9 C C7M F7M(9) G9
E|----8---7-------0---------------------------8---7-------0-------------------0---|
B|----8-------8-----------8/10--------10------8-------8-----------8/10------------|
G|----0---------------0----------0------------0---------------0----------0--------|
D|--------------------------------------------------------------------------------|
A|------------------8---8-----10---10-----------------------8---8-----10---10-----|
E|--8---8---8---8---------------------------8---8---8---8-------------------------|



Am7 F7M(9) G C C7M F7M(9) G9 Am7(9)
E|-------7p5-------0---------------------------8---7-------0-------------------0--0-|
B|---5---------5------------8/10---------10----8-------8-----------8/10-----------0-|
G|---5---------5--------0-----------0----------0---------------0----------0-------5-|
D|--------------------------------------------------------------------------------5-|
A|-0---0-----0---0----8---8------10---10---------------------8---8-----10---10----0-|
E|-------------------------------------------8---8---8---8--------------------------|


C F7M(9) G9 C
Shimbalaiê, quando vejo o sol beijando o mar
F7M(9) G9 Am7(9)
Shimbalaiê, toda vez que ele vai repousar
F7M(9) G9 C
Shimbalaiê, quando vejo o sol beijando o mar
F7M(9) G9 Am7(9)
Shimbalaiê, toda vez que ele vai repousar

C9 G/B Am7
Natureza deusa do viver
F
A beleza pura do nascer
C9 G/B Am7
Uma flor brilhando à luz do sol
F Am7
Pescador entre o mar e o anzol

C9 G/B Am7
Pensamento tão livre quanto o céu
F
Imagino um barco de papel
C9 G/B Am7
Indo embora pra não mais voltar
F Am7
Tendo como guia Iemanjá

F G C9
Shimbalaiê, quando vejo o sol beijando o mar
F G Am7
Shimbalaiê, toda vez que ele vai repousar
F G C9
Shimbalaiê, quando vejo o sol beijando o mar
F G Am7
Shimbalaiê, toda vez que ele vai repousar

C9 G/B Am7
Quanto tempo leva pra aprender
F
Que uma flor tem vida ao nascer
C9 G/B Am7
Essa flor brilhando à luz do sol
F Am7
Pescador entre o mar e o anzol

F G C9
Shimbalaiê, quando vejo o sol beijando o mar
F G Am7
Shimbalaiê, toda vez que ele vai repousar
F G C9
Shimbalaiê, quando vejo o sol beijando o mar
F G
Shimbalaiê, toda vez que ele vai repousar

(C C7M)

( C C7M F7M(9) G9 )
Ser capitã desse mundo
Poder rodar sem fronteiras
Viver um ano em segundos
Não achar sonhos besteira

F7M(9) G9 C C7M
Me encantar com um livro, que fale sobre vaidade
F7M(9) G9 F7M(9) C
Quando mentir for preciso, poder falar a verdade

(solo) C C7M

F G C9
Shimbalaiê, quando vejo o sol beijando o mar
F G C9 (4x)
Shimbalaiê, toda vez que ele vai repousar


Traduzione
Shimbalaie, quando vedo il sole bacia il mare
Shimbalaie, ogni volta che lui va a dormire

Natura, dea della vita
pura bellezza della nascita
Un fiore splendente nella luce
Pescatore tra il mare e il gancio

pensieri liberi come il cielo
Immaginate una barchetta di carta
Partire per tornare non è mai
Andando come Iemanja

Rit (2X)
Shimbalaie, quando vedo il sole bacia il mare
Shimbalaie, ogni volta che lui va a dormire

Quanto tempo ci sarà da imparare
Che un fiore ha vita alla nascita
Che un fiore splendente nella luce
Pesca tra il mare e il gancio

Rit (2X)
Shimbalaie, quando vedo il sole bacia il mare
Shimbalaie, ogni volta che lui va a dormire
Essendo un capitano di questo mondo
In grado di rotolare senza frontiere
Vivere un anno in pochi secondi
Apprezzate come i sogni più di stupidità
Diventare incantato con i libri
Che parlano di vanità
Quando ti piace, può essere necessario
Essere in grado di dire la verità


Shimbalaie, quando vedo il sole bacia il mare
Shimbalaie, ogni volta che lui va a dormire