Testo e accordi Seaside - The Kooks

09:27:00 0 Comments A+ a-

Video


Testo e accordi the kooks

Dm F Bb C
|-------------------------------------------------------------------------------|
|-3--------3------3----1--------1-----1----3--------3-----3----1--------1-----1-|
|----2-----------2--------2----------2--------3----------3--------0----------0--|
|-------0-------0------------3------3------------3------3------------2------2---|
|-0------------0-------3-----------3-------1-----------1-------3-----------3----|
|-------------------------------------------------------------------------------|


G G/f
|------------------------------------------------------|
|-0-------------------0-------0-------------------0----|
|----0----------0--------0-------0----------0--------0-|
|------------0-----0---------------------0-----0-------|
|-------0h2-------------------------0h2----------------|
|-3---------------------------1------------------------|


insert the corresponding finger picking(chords) to where the go on the lyrics

Dm F
Do you want to go to the seaside?
Bb C
I'm not trying to say that everybody wants to
Dm F
go. I fell in love at the seaside
Bb C G G/F
I handled my charm with time and slight of hand


Dm F
Do you want to go to the seaside?
Bb C
I'm not trying to say that everybody wants to
Dm F
go. I fell in love at the seaside
Bb C G
G/F
She handled her charm with time and slight of hand, hand, hand..


Dm Bb C
But i'm just trying to love you any kind of way
Dm Bb G
G/F
But i find it hard to love you girl when your far awa-a-ay, away


Dm F
Do you want to go to the seaside?
Bb C
I'm not trying to sing that everybody wants to
Dm F Bb F
Bb F
go. But I fell in love on the seaside, on the seaside, on the seaside ...