Testo + accordi + Traduzione - The Golden Age - The Asteroids Galaxy Tour

10:41:00 0 Comments A+ a-

Video


Testo di The Asteroids Galaxy Tour
I wished I lived in the golden age
Giving it up on the Broadway stage
Hang with the rats and smoke cigars
Have a break with Frank and count the stars

Dressed to the nines, with hair to match
Shiny jewels, casino cash
Tapping feet, wanna take the lead
A trip back in time is all I need

Oh!
Sing it out loud gonna get back honey
Sing it out loud get away with me
Sing it out loud on a trip back honey
Sing it out loud and let yourself free

Whoo-oo-oo-oo-oo-oo-oo-oo

I'm on my way, gonna make it big
Gonna make these songs for the chicks to dig
It's really hot and a little bit sour
We're getting your strength to maximum power

Flying away from reality
Whatever-ever happened to gravity?
I see it clear, a shooting star
And I'm really gonna sing it like da-da-da

Sing it out loud gonna get back honey
Sing it out loud get away with me
Sing it out loud on a trip back honey
Sing it out loud and let yourself free

Yeah!

Sing it out loud gonna get back honey
Sing it out loud get away with me
Sing it out loud on a trip back honey
Sing it out loud and let yourself free

Yeah-yeah!
Woah-oah!
Wow!

Ohhh silver screen on a rainy day
Sally Bowles in Cabaret
Shaking sticks, oh what a show
Fresh and jolly, from tip to toe

Rambling down the boulevard
With a fire burning in a wooden heart
My mind is set, I won't be lying
But I never really thought it would feel this fine

Yeah!
Sing it out loud gonna get back honey
Sing it out loud get away with me
Sing it out loud on a trip back honey
Sing it out loud and let yourself free

Sing it out loud gonna get back honey
Sing it out loud get away with me
Sing it out loud on a trip back honey
Sing it out loud and let yourself free!

Yeah!
Hey! Hey!
Whoo!
Ooh!
Oooooaaahh!

Whoo-oo-oo-oo-oo-oo-oo-oo
Whoo-oo-oo-oo-oo-oo-oo-oo



Accordi
Standard (E A D G B E)


Most of the song:
e|---------------------------------|
B|---------------------------------|
G|--2---2---2---2---0---0---0---0--| x 3 in the intro
D|--3---3---3---3---1---1---1p0-1--| x 7 in verse, chorus
A|--3---3---3---3---3---3---3---3--|
E|--1---1---1---1------------------|

e|---------------------------------|
B|------------------2~~~~~~~~~~~~--|
G|--2---2---2---2---3~~~~~~~~~~~~--|
D|--3---3---3---3---3~~~~~~~~~~~~--|
A|--3---3---3---3---1~~~~~~~~~~~~--|
E|--1---1---1---1------------------|

Interlude:
e|--------------------------------|--------------------------------|
B|--------------------- ------|--------------------------------|
G|-------------------- x 3 -----|--------------------------------|
D|--------------------- ------|------------8-------------------|
A|----7---6-4---6-----------------|----7---6-4-----7------6-4-6----|
E|------------------6-------------|--------------------------------|

e|--------------------------------|--------------------------------|
B|--------------------- ------|--------------------------------|
G|-------------------- x 3 -----|--------------------------------|
D|--------------------- ------|--------------------------------|
A|----7---6-4---6-----------------|---4~~~~--5~~~~--6~~~~--7~~~~---|
E|------------------6-------------|--------------------------------|



Traduzione
Mi sarebbe piaciuto vivere nell'età dell'oro
facendo applausi sul palco di Broadway
frequentando ratti e sigari
facendo una pausa con Frank
e contando le stelle
vestiti da sera, avremmo avuto fin troppo
gioielli splendenti, denaro da spendere nei casinò
vorrei saper ballare il tip tap e prendere il comando
un viaggio indietro nel tempo è tutto quello di cui ho bisogno!

canto ad alta voce, voglio tornare indietro, tesoro!
canto ad alta voce, vieni via con me!
canto ad alta voce, un viaggio indietro nel tempo, tesoro!
canto ad alta voce e ti permetto di essere libera!

sono sulla mia strada, farò le cose alla grande
farò le canzoni farmi notare dalle ragazze
è davvero eccitante e un po'pungente,
porteremo la tua forza alla massima potenza
volando via dalla realtà
cosa potrebbe mai succedere alla gravità?
vedo tutto chiaramente, una stella cadente!
sono davvero un bravo cantante!

canto ad alta voce, voglio tornare indietro, tesoro!
canto ad alta voce, vieni via con me!
canto ad alta voce, un viaggio indietro nel tempo, tesoro!
canto ad alta voce e ti permetto di essere libera!

oh, schermo d'argento in un giorno di pioggia
Sally Bowles in un cabaret
scuotendo dei bastoncini, oh che grande spettacolo
sprizzando gioia dalla punta dei piedi in su
camminando fino al viale, con il fuoco che brucia in un cuore di legno
la mia mente è stata configurata, ho oltrepassato il limite
ma non ho mai pensato che mi sarei sentito così bene! si!

canto ad alta voce, voglio tornare indietro, tesoro!
canto ad alta voce, vieni via con me!
canto ad alta voce, un viaggio indietro nel tempo, tesoro!
canto ad alta voce e ti permetto di essere libera!