Testo - Traduzione - Accordi fly away - Lenny Kravitz

22:26:00 0 Comments A+ a-

Video Versione Originale



Testo e accordi di Lenny Kravitz

G, Bb, F, C x2

G Bb F
I wish that I could fly, into the sky
C G Bb F C
so very high, just like a dragonfly
G Bb
I'll fly above the trees
F C G
over the seas, and all the greens
Bb F C
to anywhere I please


G Bb F
oh, I want to get away
C G Bb F C
I wanna fly away
G Bb F
I want to get away
C G Bb F C
I wanna fly away


G Bb
Let's go and see the stars
F C G
the milkyway, or even mars
Bb F C G
well it could just be ours
Bb
lets go fade into the sun
F C G
let your spirit fly, where we are one
Bb F
just for a little fun
C
oh, oh, oh, yeah


G Bb F
I want to get away
C G Bb F C
I wanna fly away.....yeah
G Bb F
I want to get away
C G Bb
I wanna fly away

F C
come on Craig... fly away

Solo
|------------------------------------------------------------------------------
|------------------------------------------------------------------------------
|---------3-------------------------------------------------------3-5^-5-3-----
|-3/5-5-5---5p3-5-----------------------------------------3/5-5-5----------5-3-
|-----------------5-3-----------------3-3/5-8----5-----------------------------
|---------------------6-3--6-3-6--3-6---------8^---8-6-3-----------------------

----6----6-8^-8^-8^-8^---6-8^-6--------6^---
-/8----8---------------8--------8-8-/8----8-
--------------------------------------------
--------------------------------------------
--------------------------------------------
-------------------------------------------- sorry, that's as far as I can get

G Bb F
ooh, I want to get away
C G Bb F
I wanna fly away.....yeeeeah
C
oh yeah
G Bb F
I want to get away
C G Bb
I wanna fly away
F C
away
G Bb
fly away
C F
fly away
G Bb C F
fly away
G Bb C
fly away
F G Bb
fly away, fly away
C F
fly, fly....

Traduzione
Desidero poter volare
nel cielo
molto in alto
proprio come una libellula


volerei sugli alberi
attraverserei i mari a tutte le latitudini
fino a dove io vorrei

Oh Io voglio andar via
voglio volar via
Yeah yeah yeah...

andiamo a vedere le stelle
la Via Lattea o perfino Marte
dove tutto può solo essere nostro

Savanire nel sole
lascia il tuo spirito libero di volare
dove noi siamo una cosa sola
solo per divertirsi un pò
Oh yeah

Oh Io voglio andar via
voglio volar via
Yeah yeah yeah...

Oh Io voglio andar via
voglio volar via
Yeah yeah yeah...

Io devo andar via
sento di dover andare via
Oh yeah

Oh Io voglio andar via
voglio volar via
sì, con te yeah...

Oh Io voglio andar via
voglio volar via
sì, con te yeah...

Versione Acustica