giovedì 10 settembre 2009

Testo e accordi Gocce Di Memoria - Giorgia

Video




Testo e accordi per chitarra di Giorgia
RIFF(piano):
MIm DO RE LAm

(x2)
e--12--10------------------------------
B----------13--12--10------------------
G----------------------12--11/12-11-9-- (x2)
D--------------------------------------
A--------------------------------------
E--------------------------------------

(chitarra)
MIm DO RE LAm

(x2)
e------0---0-----0-------2--2----------
B------0---0-----1-------3--3-----1----
G----0---------0-------2----------2----
D--2-----------------0----------2------
A------------3----------------0--------
E--------------------------------------
MIm DO RE
Sono gocce di memoria
LAm MIm
queste lacrime nuove
DO RE
siamo anime in una storia
LAm MIm DO RE
incancellabile____
LAm MIm
Le infinite volte che
DO RE
mi verrai a cercare
LAm
nelle mie stanze...
MIm MIm/RE# MIm/RE MIm/DO#
vuote
e------7------7-----7-----7---
B----0------0-----0-----0------
G------------------------------
D------------------------------
A--7------6-----5-----4--------
E------------------------------
MIm/RE# MIm/RE MIm/DO# DO
inestimabile, inafferrabile
RE SOL
la tua assenza che mi appartiene (mi appartiene___)
MIm MIm/RE# MIm/RE
siamo indivisibili,
MIm/DO# DO
siamo uguali e fragili
RE MIm
siamo gia' cosi' lontani (lontani___)

(Ripeti INTRO) ah ah ah ah ah...


Video Live Laura Puasini e Giorgia SanSiro Amiche per l'Abruzzo

Nessun commento: