lunedì 2 febbraio 2009

Sweet Child O'Mine - Guns N' Roses - Testo,traduzione, accordi tabs e video

Testo e accordi

Intro: D C G

D
She's got smile that it seems to me
C C9 C
reminds me of childhood memories,
G D
Where everything was as fresh as the bright blue sky
D
Now and then When I see her face
C C9 C
she takes me away to that special place,
G
and if I stared too long,
D

I'd probably break down and cry

 Am           C                    D
Woah, woah, woah, sweet child o' mine
Am C D
Woah, oh, oh, oh, sweet love of mine

D
She's got eyes of the bluest skies,
C C9 C
as if they thought of rain
G
I hate to look into those eyes
D
and see anounce of pain
D
Her hair reminds me of a warm safe place
C C9 C
where as a child I'd hide,
G
And pray for the thunder and the rain
D
to quietly pass me by

 Am           C                    D
Woah, woah, woah, sweet child o' mine
Am C D
Am           C                    D
Woah, oh, oh, oh, sweet child o' mine 2X
Am C D
Woah, oh, oh, oh, sweet love o' mine

Woah, oh, oh, oh, sweet love o' mine

(Solo 3) -> Base (Em C B A) 4x (Em G A C D) 4x
Em G
Where do we go? Where do we go now?
Am C D
Where do we go?
Em G
Where do we go? Where do we go?
Am C D
Where do we go now?
Em G
Where do we go? Sweet child, where do we go now?
Am C D
Where do we go?
Em G
Where do we go? Where do we go now?
Am C D
Where do we go?
Em G
Where do we go? Where do we go?
Am C D
Where do we go now?


E D B Am G F# Em
No, no, no, no, no, no, no
G Am C D Em
Sweet child, sweet chiiilldddd of of mine



Video Clip Originale Guns N Roses


Traduzione
Dolce bimba mia
Ha un sorriso che mi é familiare
Mi ricorda memorie d’infanzia
Dove tutto era puro e splendente
come il cielo azzurro

Prima o poi vedo il suo viso
e lei riesce a portarmi in quel posto speciale
E se lo fissassi troppo a lungo
Probabilmente scoppierei a piangere

Dolce bambina mia
Dolce amore mio

Ha il colore degli occhi del cielo più blu
Come se pensassero alla pioggia
Odio guardare dentro quegli occhi
E vederci quel pò di dolore

I suoi capelli mi ricordano
Un posto caldo e sicuro
Dove mi nasconderei come farebbe un bambino
E pregherei affinchè il tuono e la pioggia
Se ne andassero da me con calma

Dolce bambina mia
dolce amore mio

dove andiamo?
dove andiamo adesso?
dove andiamo?
dolce bambina mia

dove andiamo?
dove andiamo adesso?
dove andiamo?
dolce bambina mia

Dolce bambina mia
dolce amore mio.


Video Corso




Tabs Intro
 X2   x2
Eb--------------15----14---|--------------15----14---|----
Bb-----15------------------|-----15------------------|----
Gb--------14-12----14----14|--------14-12----14----14|----
Db--12---------------------|--14---------------------|----
Ab-------------------------|-------------------------|----
Eb-------------------------|-------------------------|----

X2 x2
Eb--------------15----14---|--------------15----14---|
Bb-----15------------------|-----15------------------|
Gb--12----14-12----14----14|--------14-12----14----14|
Db-------------------------|--12---------------------|
Ab-------------------------|-------------------------|
Eb-------------------------|-------------------------|

Repeat above x2 then...

X2 x2
Eb--------------15----14---|--------------15----14---|----
Bb-----15------------------|-----15------------------|----
Gb--------14-12----14----14|--------14-12----14----14|----
Db--12---------------------|--14---------------------|----
Ab-------------------------|-------------------------|----
Eb-------------------------|-------------------------|----

Eb--------------15----14---|--12------12--14--15--14--12-----|
Bb-----15------------------|------15----------------------15-|
Gb--12----14-12----14----14|----14--14--14--14--14--14--14---|
Db-------------------------|---------------------------------|
Ab-------------------------|---------------------------------|
Eb-------------------------|---------------------------------|


Tablatura solo
e--17b--17--15-|-14h15p14------15-|-14h15p14------------14--|
b--------------|-----------17-----|-----------17-16--17-----|
g--------------|------------------|-------------------------|
d--------------|------------------|-------------------------|
a--------------|------------------|-------------------------|
e--------------|------------------|-------------------------|

e---------------------------|----------------------|-------------------|
b--15b---12-----------------|-------------------13-|-12h13p12/10---13b-|
g-----------14b--12-11h12p11-|----------11-12-14---|-------------------|
d---------------------------|--14--14--------------|-------------------|
a---------------------------|----------------------|-------------------|
e---------------------------|----------------------|-------------------|

e------------------|---------15b--15-----------|----------------|---------|
b--13--12-12--12b--|--12---------------7b(1/2)-|--7-------------|---------|
g------------------|------14-------------------|-----9--8b(1/2)-|-8/11-9b-|
d------------------|---------------------------|----------------|---------|
a------------------|---------------------------|----------------|---------|
e------------------|---------------------------|----------------|---------|

Wah-Wah is turned on at this point

e---------------------------11------11-12/14-11-12-14/15-12-14-15-14p12-|
b------8p7----7-10/12-13p12----12-13------------------------------------|
g--8-9-----9------------------------------------------------------------|
d-----------------------------------------------------------------------|
a-----------------------------------------------------------------------|
e-----------------------------------------------------------------------|

e-----14----12h14p12---12-------|-----------------------|---------------|
b--15----16----------15--15bp12-|--15b--15b--15b15p12---|-17b-17b--17b--|
g-------------------------------|---------------------14|----------17b--|
d-------------------------------|-----------------------|---------------|
a-------------------------------|-----------------------|---------------|
e-------------------------------|-----------------------|---------------|

e-------------------------------|-------------12------------------------|
b--17b---17b--17b-----17b-17p15-|-17---15b--------15-12-----------------|
g-------------------------------|------------------------14b-14p12-14---|
d-------------------------------|---------------------------------------|
a-------------------------------|---------------------------------------|
e-------------------------------|---------------------------------------|

e----------------|--------------------------------------15-----15-----15-|
b----------------|----------------------15----------15--15-----15-----15-|
g--12-14---12-14-|-14b--12-14-12-14-14b---14-14b-12-14b----14b----14b----|
d----------------|-------------------------------------------------------|
a----------------|-------------------------------------------------------|
e----------------|-------------------------------------------------------|

e-------------------------------|----------------------------------------|
b-------------------------------|----------------------------------------|
g--14b-14-rb14p12----14p12---x-x|-12b(1/2)--------------12h14p12---------|
d-----------------14-------14x-x|-----------14p12-14-xx----------14------|
a-------------------------------|--------------------xx------------------|
e-------------------------------|----------------------------------------|

e--------------------------------------|----------------------------------
b--------------------------------------|-------------------------12-12----
g--12b(1/2)----------------12h14p12----|-12-12-------14-14p12-14----------
d-----------14p12-13-14-xx----------14-|-------14p12----------------------
a-----------------------xx-------------|----------------------------------
e--------------------------------------|----------------------------------

e--------------------|-12-12-------15-15p12--15--14-------12h15p12-----|
b--------15-15p12----|-------15p12------------------15--15---------15b-|
g--14p12----------14-|-------------------------------------------------|
d--------------------|-------------------------------------------------|
a--------------------|-------------------------------------------------|
e--------------------|-------------------------------------------------|

e------12-----------12----------12-----------12-------|
b--15b----15p12-------15p12-15b----15p12--------15p12-|
g---------------14-----------------------14b----------|
d-----------------------------------------------------|
a-----------------------------------------------------|
e-----------------------------------------------------|


e-----12--------12---------12----------12-----15-15b(2)--15~-12h15p12--12|
b--15b--15p12-----15p12-15b--15p12---12--15p12-----------------------15--|
g------------14b------------------14b------------------------------------|
d------------------------------------------------------------------------|
a------------------------------------------------------------------------|
e------------------------------------------------------------------------|

e-----12------------------------------------------------------||
b--15b--15p12-14b-14rb-12-14b--15-----------------------------||
g---------------------------------14b-14rb12--14p12-------12/-||
d-------------------------------------------14------14--------||
a-------------------------------------------------------------||
e-------------------------------------------------------------||


1 commento:

XxX_Me°_XxX ha detto...

hey grandissimi i guns n roses!!! ciauu
mioblogme/blogger.com